Oops, an error
Loading. Please wait.

Too Lates For Roses Bass Tab

844 views 1 this week
2 commentsread comments
1 2 3 4 5
2 more votes to show rating
add to favorites
launch autoscroll
font size
0
reset
guitar tuner
Autoscroll
slow
fast
+/-
esc
set tempo
stop
Help us to improve Ultimate-Guitar.com Take our survey!
×
Author
Difficulty
novice
Too Lates For Roses by August Burns red

well, im not sure for 100% but i just made it fast to give it to my fren cuz we need a 
tab for that song ..... well if u can comments or rate it would be cool ;)

Legend:

/ : slide
>: hmm like a bridge
( ) : let ring the note

|--------------------|[x4]
|--------------------|
|--------------------|
|0000000000000000000-|

|-----------------------------------------|<--(tremelo)
|-----------------------------------------|[x2]
|----7----8-7-10-8-12-7------8-7----------|
|-8----10---------------10-8-----10-8-10--|

|--------------------------------------------------|<----(tremelo the 10 and the first 8)
|-------------------------------------------7------|
|------------------------8----------8--------------|
|-10-----------------------------------------------|


|------------------------------------------------------|[x2]
|------------------------------------------------------|
|------------------------------------------------------|
|000000000000--0000--000000--000000000000--------000000|

|--------------------------------------------------------------->
|--------------------------------------------------------------->
|--------------------------------------------------------------->
|8-8-8-8-8-8-8-8-8-8-8-8-8-8-8-8-7-7-7-7-7-7-7-7-7-7-7-7-7-7-7-7>

>--------------------------------------------------|
>--------------------------------------------------|[x2]
>--------------------------------------------------|
>8-8-8-8-8-8-8-8-8-8-8/10-10-8-8/7-7-7-7-7-7-7-7-7-|

|-----------------------------------------------------|
|-----------------------------------------------------|
|-----------------------------------------------------|
|8-8-8-8-8-8-8-8-8-8-8/10-10-8-8/7-7-7-7-7-7-7-7-7---7|

(start at 1:13)
|----------|
|----------|
|---3----5-|
|3333-5555-|

|---------------------------------------------------------------|
|-----------------------------------------------------------000-|
|-----5------5--5-------7-----7--7-------9------9--9---000-0----|
|3-3-3--3-3-3--3--5-5-5--5-5-5--5--7-7-7--7-7-7--7--------0-----|

|----------------------------------|
|----------------------------------|
|-----5------5--5------7------7--7-|
|3-3-3--3-3-3--3--5-5-5--5-5-5--5--|

|------------------------------|<-----(tremelo)
|------------------------------|
|------------------------------|
|9-----------10-9-7-9-10------9|

|-----------------------------------------------------------|<---(tremelo)
|-----------------------------------------------------------|
|-------------------------9------------10------9------------|[x5]
|-3----------5-----------------------------------------12---|

|-----------------------------------------------|
|--------------2------(2)-----------------------|x4]
|-3----(3)--------------------------3-----(3)---|
|-----------------------------------------------|

|--------------------------|
|--------------------------|
|-7-------------3--------2-|
|-7-------------3--------2-|

|----------------------------------------------|x4]
|----------------------------------------------|
|----------------------------------------------|
|-000--000----000000-000----000---000000111----|

|-----------------------------------------------------|
|-----------------------------------------------------|
|-----------------------------------------------------|
|-111---111---(1)-----111111-111--111--(1)---111111---|

|-------|
|-------|
|-------|
|-0/3/12|

|----------------------|[x4]
|----------------------|
|----------------------|
|-000000--000000000000-|

|----------------------------|
|----------------------------|
|----------------------------|
|0----0----00----0----0----00|

|---------------------------------|
|---------------------------------|
|---------------------------------|
|0----0----00----0----0----00---0-|
Suggest correction
Give kudos to tab author, rate the tab!
1 2 3 4 5
comments
print report bad tab
2 comments total.
0 reply
RiouX 62 Mar 28, 2007 06:32 PM

sry guys if i srewed up but i only took the rythm guit cuz frequently in the song the bass follow it and i listened to the song live to be sure but i didnt worked more than 3 hrs lol

0 reply
RiouX 62 Apr 07, 2007 07:50 PM

well, the first part where i wrote ( tremolo ) well,it not ,there no tremolo there sry

guest
You may want to rate the tab now too:
select rating
Wanna post a correction for this tab? Suggest correction