Oops, an error
Loading. Please wait.

Truth Of A Liar tab

version 2
version 2

Whole song

9,930 views 3 this week
3 commentsread comments
1 2 3 4 5
x 5
add to favorites
×
Save as Personal and add changes to this tab that will be seen only by you. Learn more ›
×
You can save this tab as Personal to edit and correct it or add notes. All changes will be seen only by you. Learn more »
launch autoscroll
font size
0
reset
how to read this tab
guitar tuner
edit
Autoscroll
slow
fast
+/-
esc
set tempo
stop
This tab is 100% correct due to the fact that I got them from the JB (guitarist)
                                                               
D  :----------------|----------------------|-------------------|
A  :----------------|----------------------|-------------------|
F  :----------------|----------------------|--9----------10--9-|
C  :----------------|------------12--------|-------------------|
G  :----------------|12--12--12------12--12|-----12--12--------|
C  :----------------|----------------------|-------------------|
                     *   *   *       *   *       *   *   *   *
D  :----------------|10--------------------|-------------------|
A  :----------------|10--------------------|-------------------|
F  :----------------|-7--------------------|-------------------|
C  :----------------|-0--------------------|-------------------|
G  :----------------|-0--------------------|-------------------|
C  :----------------|-0--------------------|-------------------|

============================================================================

                                                                  
D  :---------------------|---------------------|------------------|
A  :---------------------|---------------------|------------------|
F  :---------------------|--------9----------10|--9---------------|
C  :-12--------------12--|---------------------|-----12-----------|
G  :-----12--12--12------|12--12-----12--12----|----------8--8--8-|
C  :---------------------|---------------------|------------------|
         *   *   *        *   *      *   *                *  *  *
D  :-----10--------------|---------------------|---------10-------|
A  :-----10--------------|---------------------|---------11-------|
F  :------7--------------|---------------------|------------------|
C  :------0--------------|---------------------|----------8-------|
G  :------0--------------|---------------------|----------8-------|
C  :------0--------------|---------------------|----------8-------|

============================================================================

                                                             
D  :----------------|------------------|---------------------|
A  :----------------|------------------|---------------------|
F  :----------------|------------------|---------------------|
C  :-7-----7--------|---7-----7--------|------11------11-----|
G  :----8-----8--8--|8-----8-----12--12|--12------12------12-|
C  :----------------|------------------|---------------------|
        *     *  *   *     *     *   *    *       *       *
D  :----------------|-------------9----|---------------------|
A  :----------------|------------10----|---------------------|
F  :----------------|------------------|---------------------|
C  :----------------|-------------7----|---------------------|
G  :----------------|-------------7----|---------------------|
C  :----------------|-------------7----|---------------------|

============================================================================

                                                                    
D  :---------------------|----------------------|-------------------|
A  :---------------------|----------------------|-------------------|
F  :---------------------|----------------------|--9----------10--9-|
C  :---------14------14--|------------12--------|-------------------|
G  :-12--12------12------|12--12--12------12--12|-----12--12--------|
C  :---------------------|----------------------|-------------------|
     *   *       *        *   *   *       *   *       *   *        
D  :---------------------|----------------------|-------------------|
A  :---------------------|----------------------|-------------------|
F  :---------------------|----------------------|-------------------|
C  :---------------------|----------------------|-------------------|
G  :---------------------|-------------5--------|--7-----------8----|
C  :---------------------|-0---0---0-------0---0|------0---0------0-|
                           *   *   *       *   *       *   *      *
============================================================================

                                                                 
D  :---------------------|---------------------|-----------------|
A  :---------------------|---------------------|-----------------|
F  :---------------------|--------9----------10|--9--------------|
C  :-12--------------12--|---------------------|-----12----------|
G  :-----12--12--12------|12--12-----12--12----|---------8--8--8-|
C  :---------------------|---------------------|-----------------|
        *  *  *  *        *   *      *   *               *  *  *
D  :---------------------|---------------------|-----------------|
A  :---------------------|---------------------|-----------------|
F  :---------------------|---------------------|-----------------|
C  :---------------------|---------------------|-----------------|
G  :------------------5--|--------7-----------8|-----------------|
C  :--0---0---0---0------|-0---0------0---0----|--0---0--8--8--8-|
      *   *   *   *        *   *      *   *       *   *  *  *  *
============================================================================

                                                               
D  :-----------------|-------------------|---------------------|
A  :-----------------|-------------------|---------------------|
F  :-----------------|-------------------|---------------------|
C  :-7-----7---------|----7-----7--------|------11------11-----|
G  :----8------8--8--|8------8-----12--12|--12------12------12-|
C  :-----------------|-------------------|---------------------|
        *      *  *   *      *     *   *    *       *       *
D  :-----------------|-------------------|---------------------|
A  :-----------------|-------------------|---------------------|
F  :-----------------|-------------------|---------------------|
C  :-----------------|-------------------|---------------------|
G  :-8--------10-----|---12--------------|-------7-----------8-|
C  :----8--8------8--|8------8--8---7---7|---7-------7---7-----|
        *  *      *   *      *  *   *   *    *       *   *
============================================================================

                                                                    
D  :---------------------|----------------------|-------------------|
A  :---------------------|----------------------|-------------------|
F  :---------------------|----------------------|--9----------10--9-|
C  :---------14------14--|------------12--------|-------------------|
G  :-12--12------12------|12--12--12------12--12|-----12--12--------|
C  :---------------------|----------------------|-------------------|
     *   *       *        *   *   *       *   *       *   *        
D  :---------------------|----------------------|-------------------|
A  :---------------------|----------------------|-------------------|
F  :---------------------|----------------------|-------------------|
C  :---------------------|----------------------|-------------------|
G  :---------10----------|-------------5--------|--7-----------8----|
C  :--7---7-------7---7--|-0---0---0-------0---0|------0---0------0-|
      *   *       *   *    *   *   *       *   *       *   *      *
============================================================================

                                                                 
D  :---------------------|---------------------|-----------------|
A  :---------------------|---------------------|-----------------|
F  :---------------------|--------9----------10|--9--------------|
C  :-12--------------12--|---------------------|-----12----------|
G  :-----12--12--12------|12--12-----12--12----|---------8--8--8-|
C  :---------------------|---------------------|-----------------|
         *   *   *        *   *      *   *               *  *  *
D  :---------------------|---------------------|-----------------|
A  :---------------------|---------------------|-----------------|
F  :---------------------|---------------------|-----------------|
C  :---------------------|---------------------|-----------------|
G  :------------------5--|--------7-----------8|-----------------|
C  :--0---0---0---0------|-0---0------0---0----|--0---0--8--8--8-|
      *   *   *   *        *   *      *   *       *   *  *  *  *
============================================================================

                                                               
D  :-----------------|-------------------|---------------------|
A  :-----------------|-------------------|---------------------|
F  :-----------------|-------------------|---------------------|
C  :-7-----7---------|----7-----7--------|------11------11-----|
G  :----8------8--8--|8------8-----12--12|--12------12------12-|
C  :-----------------|-------------------|---------------------|
        *      *  *   *      *     *   *    *       *       *
D  :-----------------|-------------------|---------------------|
A  :-----------------|-------------------|---------------------|
F  :-----------------|-------------------|---------------------|
C  :-----------------|-------------------|---------------------|
G  :-8--------10-----|---12--------------|-------7-----------8-|
C  :----8--8------8--|8------8--8---7---7|---7-------7---7-----|
        *  *      *   *      *  *   *   *    *       *   *
============================================================================

                                                                    
D  :---------------------|----------------------|-------------------|
A  :---------------------|----------------------|-------------------|
F  :---------------------|----------------------|--9----------10--9-|
C  :---------14------14--|------------12--------|-------------------|
G  :-12--12------12------|12--12--12------12--12|-----12--12--------|
C  :---------------------|----------------------|-------------------|
     *   *       *        *   *   *       *           *   *        
D  :---------------------|----------------------|-------------------|
A  :---------------------|----------------------|-------------------|
F  :---------------------|----------------------|-------------------|
C  :---------------------|----------------------|-------------------|
G  :---------10----------|----------------------|-------------------|
C  :--7---7-------7---7--|----------------------|-------------------|
      *   *       *   *
============================================================================

                                                                 
D  :---------------------|---------------------|-----------------|
A  :---------------------|---------------------|-----------------|
F  :---------------------|--------9----------10|--9--------------|
C  :-12--------------12--|---------------------|-----12----------|
G  :-----12--12--12------|12--12-----12--12----|---------8--8--8-|
C  :---------------------|---------------------|-----------------|
         *   *   *        *   *      *   *               *  *  *        
D  :---------------------|---------------------|-----------------|
A  :---------------------|---------------------|-----------------|
F  :---------------------|---------------------|-----------------|
C  :---------------------|---------------------|-----------------|
G  :---------------------|---------------------|-----------------|
C  :---------------------|---------------------|-----------------|

============================================================================

                                                             
D  :----------------|------------------|---------------------|
A  :----------------|------------------|---------------------|
F  :----------------|------------------|---------------------|
C  :-7-----7--------|---7-----7--------|------11------11-----|
G  :----8-----8--8--|8-----8-----12--12|--12------12------12-|
C  :----------------|------------------|---------------------|
        *     *  *   *     *     *   *    *       *
D  :----------------|------------------|---------------------|
A  :----------------|------------------|---------------------|
F  :----------------|------------------|---------------------|
C  :----------------|------------------|---------------------|
G  :----------------|------------------|---------------------|
C  :----------------|------------------|---------------------|

============================================================================

                                                                    
D  :---------------------|----------------------|-------------------|
A  :---------------------|----------------------|-------------------|
F  :---------------------|----------------------|--9----------10--9-|
C  :---------14------14--|------------12--------|-------------------|
G  :-12--12------12------|12--12--12------12--12|-----12--12--------|
C  :---------------------|----------------------|-------------------|
     *   *   *   *        *   *   *       *   *       *   *
D  :---------------------|----------------------|-------------------|
A  :---------------------|----------------------|-------------------|
F  :---------------------|----------------------|-------------------|
C  :---------------------|----------------------|-------------------|
G  :---------------------|----------------------|-------------------|
C  :---------------------|----------------------|-------------------|

============================================================================

                                                                 
D  :---------------------|---------------------|-----------------|
A  :---------------------|---------------------|-----------------|
F  :---------------------|--------9----------10|--9--------------|
C  :-12--------------12--|---------------------|-----12----------|
G  :-----12--12--12------|12--12-----12--12----|---------8--8--8-|
C  :---------------------|---------------------|-----------------|
         *   *   *        *   *      *   *               *  *  *
D  :---------------------|---------------------|-----------------|
A  :---------------------|---------------------|-----------------|
F  :---------------------|---------------------|-----------------|
C  :---------------------|---------------------|-----------------|
G  :---------------------|---------------------|-----------------|
C  :---------------------|---------------------|-----------------|

============================================================================

                                                             
D  :----------------|------------------|---------------------|
A  :----------------|------------------|---------------------|
F  :----------------|------------------|---------------------|
C  :-7-----7--------|---7-----7--------|------11------11-----|
G  :----8-----8--8--|8-----8-----12--12|--12------12------12-|
C  :----------------|------------------|---------------------|
        *     *  *   *     *     *   *    *       *       *
D  :----------------|------------------|---------------------|
A  :----------------|------------------|---------------------|
F  :----------------|------------------|---------------------|
C  :----------------|------------------|---------------------|
G  :----------------|------------------|---------------------|
C  :----------------|------------------|---------------------|

============================================================================

                                                                    
D  :---------------------|----------------------|-------------------|
A  :---------------------|----------------------|-------------------|
F  :---------------------|----------------------|--9----------10--9-|
C  :---------14------14--|------------12--------|-------------------|
G  :-12--12------12------|12--12--12------12--12|-----12--12--------|
C  :---------------------|----------------------|-------------------|
     *   *       *        *   *   *       *   *       *   *
D  :---------------------|----------------------|-------------------|
A  :---------------------|----------------------|-------------------|
F  :---------------------|----------------------|-------------------|
C  :---------------------|----------------------|-------------------|
G  :---------------------|----------------------|-------------------|
C  :---------------------|----------------------|-------------------|

============================================================================

                                                                        
D  :-----------------|----------------|----------------|----------------|
A  :-----------------|----------------|----------------|----------------|
F  :-----------------|---------3-2----|----------------|---------3-2----|
C  :-12--0-----------|-------------3--|-0-3-7-0-5-8-0--|-------0-----3--|
G  :-----0-----------|---------------5|-0-----0-----0-7|-0-4-5-0-------5|
C  :-----0-----------|----------------|-0-----0-----0--|-------0--------|
                                        *     *     *          *
D  :-----------------|----------------|----------------|----------------|
A  :-----------------|----------------|----------------|----------------|
F  :-----------------|----------------|----------------|----------------|
C  :-----------------|----------------|----------------|----------------|
G  :-----------------|----------------|----------------|----------------|
C  :-----------------|----------------|----------------|----------------|

============================================================================

                                                                       
D  :----------------|----------------|----------------|----------------|
A  :---------------3|-6-5------------|----------------|----------------|
F  :----------------|-----3-2--------|----------------|-----3-2--------|
C  :-0-3-7-0-5-8-0--|---------3---0-3|-7-0-5-8-0------|---0-----3---0-3|
G  :-0-----0-----0--|-----------5-0--|---0-----0-7-0-4|-5-0-------5-0--|
C  :-0-----0-----0--|-------------0--|---0-----0------|---0---------0--|
     *     *     *                *      *     *          *         *
D  :----------------|----------------|----------------|----------------|
A  :----------------|----------------|----------------|----------------|
F  :----------------|----------------|----------------|----------------|
C  :----------------|----------------|----------------|----------------|
G  :----------------|----------------|----------------|----------------|
C  :----------------|----------------|----------------|----------------|

============================================================================

                                                                       
D  :----------------|----------------|----------------|----------------|
A  :----------------|----------------|----------------|----------------|
F  :-----------6-6-6|-6---3-2--------|----------------|-----3-2--------|
C  :-7-0-5-8-0-7-7-7|-7-0-----3---0-3|-7-0-5-8-0------|---0-----3---0-3|
G  :---0-----0-7-7-7|-7-0-------5-0--|---0-----0-7-0-4|-5-0-------5-0--|
C  :---0-----0-7-7-7|-7-0---------0--|---0-----0------|---0---------0--|
       *     *          *         *      *     *          *         *
D  :----------------|----------------|----------------|----------------|
A  :----------------|----------------|----------------|----------------|
F  :----------------|----------------|----------------|----------------|
C  :----------------|----------------|----------------|----------------|
G  :----------------|----------------|----------------|----------------|
C  :----------------|----------------|----------------|----------------|

============================================================================

                                                                       
D  :----------------|----------------|----------------|----------------|
A  :-----------3-6-5|----------------|----------------|----------------|
F  :----------------|-3-2------------|----------------|-3-2------------|
C  :-7-0-5-8-0------|-----3---0-3-7-0|-5-8-0---------0|-----3---0-3-7-0|
G  :---0-----0------|-------5-0-----0|-----0-7-0-4-5-0|-------5-0-----0|
C  :---0-----0------|---------0-----0|-----0---------0|---------0-----0|
       *     *                *     *      *         *          *     *
D  :----------------|----------------|----------------|----------------|
A  :----------------|----------------|----------------|----------------|
F  :----------------|----------------|----------------|----------------|
C  :----------------|----------------|----------------|----------------|
G  :----------------|----------------|----------------|----------------|
C  :----------------|----------------|----------------|----------------|

============================================================================

                                                          
D  :----------------|------------------|------------------|
A  :-------3-6-5----|------------------|------------------|
F  :-------------3-2|---------------3-2|---------------3-2|
C  :-5-8-0----------|-3---0-0-0-0-0----|-3---0-0-0-0-0----|
G  :-----0----------|---5-0-0-0-0-0----|---5-0-0-0-0-0----|
C  :-----0----------|-----0-0-0-0-0----|-----0-0-0-0-0----|
         *                * * * * *          * * * * *
D  :----------------|------------------|------------------|
A  :----------------|------------------|------------------|
F  :----------------|------------------|------------------|
C  :----------------|------------------|------------------|
G  :----------------|------------------|------------------|
C  :----------------|------------------|------------------|

============================================================================

                                                          
D  :------------------|------------------|----------------|
A  :------------------|------------------|----------------|
F  :---------------3-2|-------------2---2|-2-2---2-3---3-3|
C  :-3---0-0-0-0-0----|-3---0-0-0-0-3---3|-3-3---3-5---5-5|
G  :---5-0-0-0-0-0----|---5-0-0-0-0-3---3|-3-3---3-5---5-5|
C  :-----0-0-0-0-0----|-----0-0-0-0-3---3|-3-3---3-5---5-5|
         * * * * *          * * * *
D  :------------------|------------------|----------------|
A  :------------------|------------------|----------------|
F  :------------------|------------------|----------------|
C  :------------------|------------------|----------------|
G  :------------------|------------------|----------------|
C  :------------------|------------------|----------------|

============================================================================

                                                           
D  :-----------------|------------------|------------------|
A  :-----------------|------------------|------------------|
F  :-----------------|------3-2---------|------3-2---------|
C  :---0-0-0-0---0-0-|0-0-0-----3---0-0-|0-0-0-----3---0-0-|
G  :---0-0-0-0-5-0-0-|0-0-0-------5-0-0-|0-0-0-------5-0-0-|
C  :---0-0-0-0---0-0-|0-0-0---------0-0-|0-0-0---------0-0-|
       * * * *   * *  * * *         * *  * * *         * *  
D  :-----------------|------------------|------------------|
A  :-----------------|------------------|------------------|
F  :-----------------|------------------|------------------|
C  :-----------------|------------------|------------------|
G  :-----------------|------------------|------------------|
C  :-----------------|------------------|------------------|

============================================================================

                                                         
D  :------------------|-----------------|----------------|
A  :------------------|-----------------|----------------|
F  :------3-2---------|----2---2-2-2---2|-3---3-3--------|
C  :0-0-0-----3---0-0-|0-0-3---3-3-3---3|-5---5-5---0-0-0|
G  :0-0-0-------5-0-0-|0-0-3---3-3-3---3|-5---5-5---0-0-0|
C  :0-0-0---------0-0-|0-0-3---3-3-3---3|-5---5-5---0-0-0|
    * * *         * *  * *                          * * *
D  :------------------|-----------------|----------------|
A  :------------------|-----------------|----------------|
F  :------------------|-----------------|----------------|
C  :------------------|-----------------|----------------|
G  :------------------|-----------------|----------------|
C  :------------------|-----------------|----------------|

============================================================================

                                                            
D  :------------------|------------------|------------------|
A  :------------------|------------------|------------------|
F  :------------------|---------------3-2|------------------|
C  :-0-3-0-0-0-0-0----|-----0-0-0-0-0----|-3---0-0-0-0-0---0|
G  :-0-5-0-0-0-0-0----|-----0-0-0-0-0----|---5-0-0-0-0-0---0|
C  :-0---0-0-0-0-0----|-----0-0-0-0-0----|-----0-0-0-0-0---0|
     *   * * * * *          * * * * *          * * * * *   *
D  :------------------|------------------|------------------|
A  :------------------|------------------|------------------|
F  :------------------|------------------|------------------|
C  :------------------|------------------|------------------|
G  :------------------|------------------|------------------|
C  :------------------|------------------|------------------|

============================================================================

                                                             
D  :-------------------|------------------|------------------|
A  :-------------------|------------------|------------------|
F  :----------------3-2|------------------|---------------3-2|
C  :0-0---0-0-0-0-0----|-3---0-0-0-0-0----|-----0-0-0-0-0----|
G  :0-0---0-0-0-0-0----|---5-0-0-0-0-0----|-----0-0-0-0-0----|
C  :0-0---0-0-0-0-0----|-----0-0-0-0-0----|-----0-0-0-0-0----|
    * *   * * * * *          * * * * *          * * * * *
D  :-------------------|------------------|------------------|
A  :-------------------|------------------|------------------|
F  :-------------------|------------------|------------------|
C  :-------------------|------------------|------------------|
G  :-------------------|------------------|------------------|
C  :-------------------|------------------|------------------|

============================================================================

  
D  :------------------|---------------------|-----------------|
A  :------------------|---------------------|-----------------|
F  :------------------|---------------------|-----------------|
C  :-3---0-0-0-0-0---0|0-0---0-0-0-0-0-0-0-0|0-0-0------------|
G  :---5-0-0-0-0-0---0|0-0---0-0-0-0-0-0-0-0|0-0-0------------|
C  :-----0-0-0-0-0---0|0-0---0-0-0-0-0-0-0-0|0-0-0------------|
         * * * * *   * * *   * * * * * * * * * * *
D  :------------------|---------------------|-----------------|
A  :------------------|---------------------|-----------------|
F  :------------------|---------------------|-----------------|
C  :------------------|---------------------|-----------------|
G  :------------------|---------------------|-----------------|
C  :------------------|---------------------|-----------------|

============================================================================

                       
D  :----------------|-------------------|---------------------|
A  :----------------|-------------------|---------------------|
F  :----------------|-------------------|---------------------|
C  :----------------|--------0----------|-----0---0--0--------|
G  :----------------|--------0----------|-----0---0--0--------|
C  :----------------|--------0----------|-----0---0--0--------|
                             *                *   *  *
D  :----------------|-------------------|---------------------|
A  :----------------|-------------------|---------------------|
F  :----------------|-------------------|------------9--------|
C  :----------------|-------------------|12-------------------|
G  :----------------|-------12--12--12--|----12--12-----12--12|
C  :----------------|-------------------|---------------------|
                            *   *   *        *   *      *   *
============================================================================

                                                                  
D  :--------------------|--------------------|--------------------|
A  :--------------------|--------------------|--------------------|
F  :--------------------|--------------------|--------------------|
C  :------0---0---0---0-|--0---0-------------|-0---0---0------0--3|
G  :------0---0---0---0-|--0---0-------------|-0---0---0------0--3|
C  :------0---0---0---0-|--0---0-------------|-0---0---0------0--3|
          *   *   *   *    *   *               *   *   *      *  *
D  :--------------------|--------------------|--------------------|
A  :--------------------|--------------------|--------------------|
F  :--10--9-------------|-----------------9--|--------10--9-------|
C  :---------12---------|-----12-------------|---------------12---|
G  :-------------12--12-|-12------12--12-----|12--12-------------8|
C  :--------------------|--------------------|--------------------|
                 *   *    *       *   *       *   *              *
============================================================================

                                                           
D  :----------------|----------------|---------------------|
A  :----------------|----------------|---------------------|
F  :----------------|----------------|---------------------|
C  :-----3-----3--3-|-3-----------3--|3---7-------7-------7|
G  :-----3-----3--3-|-3-----------3--|3---7-------7-------7|
C  :-----3-----3--3-|-3-----------3--|3---7-------7-------7|
         *     *  *   *           *   *   *       *       *
D  :----------------|----------------|---------------------|
A  :----------------|----------------|---------------------|
F  :----------------|----------------|---------------------|
C  :--------7-----7-|----------7-----|7--------------11----|
G  :--8--8-----8----|-8--8--8-----8--|---12--12--12------12|
C  :----------------|----------------|---------------------|
      *  *     *      *  *  *     *      *   *   *       *    
============================================================================

                                                                     
D  :---------------------|---------------------|---------------------|
A  :---------------------|---------------------|---------------------|
F  :---------------------|---------------------|---------------------|
C  :-------7-------7-----|--7-------0----------|-----0---0--0--------|
G  :-------7-------7-----|--7-------0----------|-----0---0--0--------|
C  :-------7-------7-----|--7-------0----------|-----0---0--0--------|
           *       *        *       *                *   *  *
D  :---------------------|---------------------|---------------------|
A  :---------------------|---------------------|---------------------|
F  :---------------------|---------------------|------------9--------|
C  :--11--------------14-|-----14--------------|12-------------------|
G  :------12--12--12-----|-12------12--12--12--|----12--12-----12--12|
C  :---------------------|---------------------|---------------------|
          *   *   *        *       *   *   *        *   *      *   *
============================================================================

                                                                  
D  :--------------------|--------------------|--------------------|
A  :--------------------|--------------------|--------------------|
F  :--------------------|--------------------|--------------------|
C  :------0---0---0---0-|--0---0-------------|-0---0---0------0--3|
G  :------0---0---0---0-|--0---0-------------|-0---0---0------0--3|
C  :------0---0---0---0-|--0---0-------------|-0---0---0------0--3|
          *   *   *   *    *   *               *   *   *      *  *
D  :--------------------|--------------------|--------------------|
A  :--------------------|--------------------|--------------------|
F  :--10--9-------------|-----------------9--|--------10--9-------|
C  :---------12---------|-----12-------------|---------------12---|
G  :-------------12--12-|-12------12--12-----|12--12-------------8|
C  :--------------------|--------------------|--------------------|
                 *   *    *       *   *       *   *              *
============================================================================

                                                           
D  :----------------|----------------|---------------------|
A  :----------------|----------------|---------------------|
F  :----------------|----------------|---------------------|
C  :-----3-----3--3-|-3-----------3--|3---7-------7-------7|
G  :-----3-----3--3-|-3-----------3--|3---7-------7-------7|
C  :-----3-----3--3-|-3-----------3--|3---7-------7-------7|
         *     *  *   *           *   *   *       *       *
D  :----------------|----------------|---------------------|
A  :----------------|----------------|---------------------|
F  :----------------|----------------|---------------------|
C  :--------7-----7-|----------7-----|7--------------11----|
G  :--8--8-----8----|-8--8--8-----8--|---12--12--12------12|
C  :----------------|----------------|---------------------|
      *  *     *      *  *  *     *      *   *   *       *
============================================================================

                                                                     
D  :---------------------|---------------------|---------------------|
A  :---------------------|---------------------|---------------------|
F  :---------------------|---------------------|---------------------|
C  :-------7-------7-----|--7-------0----------|-----0---0--0--------|
G  :-------7-------7-----|--7-------0----------|-----0---0--0--------|
C  :-------7-------7-----|--7-------0----------|-----0---0--0--------|
           *       *        *       *                *   *  *
D  :---------------------|---------------------|---------------------|
A  :---------------------|---------------------|---------------------|
F  :---------------------|---------------------|------------9--------|
C  :--11--------------14-|-----14--------------|12-------------------|
G  :------12--12--12-----|-12------12--12--12--|----12--12-----12--12|
C  :---------------------|---------------------|---------------------|
          *   *   *        *       *   *   *        *   *      *   *
============================================================================

                                                                  
D  :--------------------|--------------------|--------------------|
A  :--------------------|--------------------|--------------------|
F  :--------------------|--------------------|--------------------|
C  :------0---0---0---0-|--0---0-------------|-0---0---0------0--3|
G  :------0---0---0---0-|--0---0-------------|-0---0---0------0--3|
C  :------0---0---0---0-|--0---0-------------|-0---0---0------0--3|
          *   *   *   *    *   *               *   *   *      *  *
D  :--------------------|--------------------|--------------------|
A  :--------------------|--------------------|--------------------|
F  :--10--9-------------|-----------------9--|--------10--9-------|
C  :---------12---------|-----12-------------|---------------12---|
G  :-------------12--12-|-12------12--12-----|12--12-------------8|
C  :--------------------|--------------------|--------------------|
                 *   *    *       *   *       *   *              *
============================================================================

                                                           
D  :----------------|----------------|---------------------|
A  :----------------|----------------|---------------------|
F  :----------------|----------------|---------------------|
C  :-----3-----3--3-|-3-----------3--|3---7-------7-------7|
G  :-----3-----3--3-|-3-----------3--|3---7-------7-------7|
C  :-----3-----3--3-|-3-----------3--|3---7-------7-------7|
         *     *  *   *           *   *   *       *       *
D  :----------------|----------------|---------------------|
A  :----------------|----------------|---------------------|
F  :----------------|----------------|---------------------|
C  :--------7-----7-|----------7-----|7--------------10----|
G  :--8--8-----8----|-8--8--8-----8--|---12--12--12------12|
C  :----------------|----------------|---------------------|
      *  *     *      *  *  *     *      *   *   *       *
============================================================================

                                                                     
D  :---------------------|---------------------|---------------------|
A  :---------------------|---------------------|---------------------|
F  :---------------------|---------------------|---------------------|
C  :-------7-------7-----|--7-------0----------|-----0---0--0--------|
G  :-------7-------7-----|--7-------0----------|-----0---0--0--------|
C  :-------7-------7-----|--7-------0----------|-----0---0--0--------|
           *       *        *       *                *   *  *
D  :---------------------|---------------------|---------------------|
A  :---------------------|---------------------|---------------------|
F  :---------------------|---------------------|------------9--------|
C  :--10--------------14-|-----14--------------|12-------------------|
G  :------12--12--12-----|-12------12--12--12--|----12--12-----12--12|
C  :---------------------|---------------------|---------------------|
      *   *   *   *        *       *   *   *        *   *      *   *
============================================================================

                                                                  
D  :--------------------|--------------------|--------------------|
A  :--------------------|--------------------|--------------------|
F  :--------------------|--------------------|--------------------|
C  :------0---0---0---0-|--0---0-------------|-0---0---0------0--3|
G  :------0---0---0---0-|--0---0-------------|-0---0---0------0--3|
C  :------0---0---0---0-|--0---0-------------|-0---0---0------0--3|
          *   *   *   *    *   *               *   *   *      *  *
D  :--------------------|--------------------|--------------------|
A  :--------------------|--------------------|--------------------|
F  :--10--9-------------|-----------------9--|--------10--9-------|
C  :---------12---------|-----12-------------|---------------12---|
G  :-------------12--12-|-12------12--12-----|12--12-------------8|
C  :--------------------|--------------------|--------------------|
                 *   *    *       *   *       *   *              *
============================================================================

                                                           
D  :----------------|----------------|---------------------|
A  :----------------|----------------|---------------------|
F  :----------------|----------------|---------------------|
C  :-----3-----3--3-|-3-----------3--|3---7-------7-------7|
G  :-----3-----3--3-|-3-----------3--|3---7-------7-------7|
C  :-----3-----3--3-|-3-----------3--|3---7-------7-------7|
         *     *  *   *           *   *   *       *       *
D  :----------------|----------------|---------------------|
A  :----------------|----------------|---------------------|
F  :----------------|----------------|---------------------|
C  :--------7-----7-|----------7-----|7--------------10----|
G  :--8--8-----8----|-8--8--8-----8--|---12--12--12------12|
C  :----------------|----------------|---------------------|
      *  *     *      *  *  *     *      *   *   *       * 
============================================================================

                                                            
D  :---------------------|-----------------|----------------|
A  :---------------------|-----------------|----------------|
F  :---------------------|------------10---|9---------------|
C  :-------7-------7-----|--------0-0----0-|--0-0-7-8-7-----|
G  :-------7-------7-----|--------0-0----0-|--0-0-------8-7-|
C  :-------7-------7-----|--------0-0----0-|--0-0-----------|
           *       *              * *    *    * *
D  :---------------------|-----------------|----------------|
A  :---------------------|-----------------|----------------|
F  :---------------------|-----------------|----------------|
C  :--10--------------14-|-----------------|----------------|
G  :------12--12--12-----|-----------------|----------------|
C  :---------------------|-----------------|----------------|
          *   *   *
============================================================================

                                                            
D  :-----------------|--------------------|-----------------|
A  :-----------------|--------------------|-----------------|
F  :-------------7---|--------------------|------------10---|
C  :-----8-7-5-5---5-|8-5-7-5-5-5-5-5-5---|----7-8-0-0----0-|
G  :10-5-----5-5---5-|--5---5-5-5-5-5-5-8-|7-5-----0-0----0-|
C  :---------5-5---5-|--5---5-5-5-5-5-5---|--------0-0----0-|
             * *   *    *   * * * * * *            * *    *
D  :-----------------|--------------------|-----------------|
A  :-----------------|--------------------|-----------------|
F  :-----------------|--------------------|-----------------|
C  :-----------------|--------------------|-----------------|
G  :-----------------|--------------------|-----------------|
C  :-----------------|--------------------|-----------------|

============================================================================

                                                           
D  :----------------|-----------------|--------------------|
A  :----------------|-----------------|--------------------|
F  :9---------------|-------------7---|--------------------|
C  :--0-0-7-8-7-----|-----8-7-5-5---5-|8-5-7-5-5-5-5-5-5---|
G  :--0-0-------8-7-|10-5-----5-5---5-|--5---5-5-5-5-5-5-8-|
C  :--0-0-----------|---------5-5---5-|--5---5-5-5-5-5-5---|
      * *                     * *   *    *   * * * * * *
D  :----------------|-----------------|--------------------|
A  :----------------|-----------------|--------------------|
F  :----------------|-----------------|--------------------|
C  :----------------|-----------------|--------------------|
G  :----------------|-----------------|--------------------|
C  :----------------|-----------------|--------------------|

============================================================================

                                                              
D  :-----------------|---------------------|------------------|
A  :-----------------|---------------------|------------------|
F  :------------10---|-9-------------------|--------------7---|
C  :----7-8-0-0----0-|---0-0-7--8--7-------|------8-7-5-5---5-|
G  :7-5-----0-0----0-|---0-0----------8--7-|10--5-----5-5---5-|
C  :--------0-0----0-|---0-0---------------|----------5-5---5-|
            * *    *     * *                          * *   *
D  :-----------------|---------------------|------------------|
A  :-----------------|---------------------|------------------|
F  :-----------------|-------9-12-10-14----|------------------|
C  :-------------7---|10----------------10-|-8-12-5-3-----8---|
G  :-----------------|---------------------|------------------|
C  :-----------------|---------------------|------------------|

============================================================================

                                                                
D  :--------------------|-----------------|---------------------|
A  :--------------------|-----------------|---------------------|
F  :--------------------|------------10---|-9-------------------|
C  :8-5-7-5-5-5-5-5-5---|----7-8-0-0----0-|---0-0-7--8--7-------|
G  :--5---5-5-5-5-5-5-8-|7-5-----0-0----0-|---0-0----------8--7-|
C  :--5---5-5-5-5-5-5---|--------0-0----0-|---0-0---------------|
      *   * * * * * *            * *    *     * *
D  :--------------------|-----------------|---------------------|
A  :--------------------|------6----------|---------------------|
F  :--------------------|----5------------|-------9-12-10-14----|
C  :5-----------------7-|5-8----------7---|10----------------10-|
G  :----8---------------|-----------------|---------------------|
C  :--------------------|-----------------|---------------------|

============================================================================

                                                                    
D  :------------------|--------------------|------------------------|
A  :------------------|--------------------|------------------------|
F  :--------------7---|--------------------|------------------------|
C  :------8-7-5-5---5-|8-5-7-5-5-5-5-5-5---|5-5-5-5-5---------------|
G  :10--5-----5-5---5-|--5---5-5-5-5-5-5---|5-5-5-5-5---------------|
C  :----------5-5---5-|--5---5-5-5-5-5-5---|5-5-5-5-5---------------|
              * *   *    *   * * * * * *    * * * * *
D  :------------------|--------------------|------------------------|
A  :------------------|--------------------|------------------------|
F  :------------------|--------------------|------------------------|
C  :-8-12-5-3-----8---|5-------------------|------------0-0-0-0-0-7-|
G  :------------------|----8---------------|------------0-0-0-0-0---|
C  :------------------|--------------------|------------0-0-0-0-0---|
                                                        * * * * *
============================================================================

                                                                     
D  :-------------------|-------------------------|-------------------|
A  :-------------------|-------------------------|-------------------|
F  :-------------------|-------------------------|-------------------|
C  :-------------------|-------------------------|-------------------|
G  :-------------------|-------------------------|-------------------|
C  :-------------------|-------------------------|-------------------|

D  :-------------------|-------------------------|-------------------|
A  :-----------10-8----|-------------------------|-----------10-8----|
F  :9-10-7----------10-|9------------------------|9-10-7----------10-|
C  :-------0-0---------|--8-0-7-8-10-0-0-0-0-0-7-|-------0-0---------|
G  :-------0-0---------|-------------0-0-0-0-0---|-------0-0---------|
C  :-------0-0---------|-------------0-0-0-0-0---|-------0-0---------|
           * *                       * * * * *           * *
============================================================================

                                                                        
D  :----------------------|-------------------|-------------------------|
A  :----------------------|-------------------|-------------------------|
F  :----------------------|-------------------|-------------------------|
C  :----------------------|-------------------|-------------------------|
G  :----------------------|-------------------|-------------------------|
C  :----------------------|-------------------|-------------------------|

D  :----------------------|-------------------|-------------------------|
A  :--11-10-8-------------|-----------10-8----|-------------------------|
F  :9---------------------|9-10-7----------10-|9------------------------|
C  :----------0-0-0-0-0-7-|-------0-0---------|--8-0-7-8-10-0-0-0-0-0-7-|
G  :----------0-0-0-0-0---|-------0-0---------|-------------0-0-0-0-0---|
C  :----------0-0-0-0-0---|-------0-0---------|-------------0-0-0-0-0---|
              * * * * *           * *                       * * * * *
============================================================================

                                                 
D  :-------------------|-------------------------|
A  :-------------------|-------------------------|
F  :-------------------|-------------------------|
C  :-------------------|-------------------------|
G  :-------------------|----------5-5-5-5-5-5-5-5|
C  :-------------------|-------------------------|

D  :-------------------|-------------------------|
A  :-----------10-8----|--11-10-8----------------|
F  :9-10-7----------10-|9------------------------|
C  :-------0-0---------|----------0-0-0-0-0---7--|
G  :-------0-0---------|----------0-0-0-0-0------|
C  :-------0-0---------|----------0-0-0-0-0------|
           * *                    * * * * *
============================================================================

                                                                       
D  :----------------------------------|--------------------------------|
A  :----------------------------------|--------------------------------|
F  :----------------------------------|--------------------------------|
C  :-----------------8-8--8-8-8-8--8-8|8-8-8-8-8-8--8-8-3-3-3-3-3-3-3-3|
G  :5-5--5-5-5-5-5-5------------------|--------------------------------|
C  :----------------------------------|--------------------------------|

D  :----------------------------------|--------------------------------|
A  :---------------------10---8-------|--------------------------------|
F  :9---10---7--------------------10--|9-------------------------------|
C  :-------------0---0----------------|----8-0-7-8-10---0-0-0-0-0---7--|
G  :-------------0---0----------------|-----------------0-0-0-0-0------|
C  :-------------0---0----------------|-----------------0-0-0-0-0------|
                 *   *                                  * * * * *
============================================================================

                                                                        
D  :----------------------------------|---------------------------------|
A  :----------------------------------|---------------------------------|
F  :----------------------------------|---------------------------------|
C  :3-3--3-3-3-3-3-3------------------|---------------------------------|
G  :-----------------3-3--3-3-3-3--3-3|3-3--3-3--3-3-3-3-1-1-1-1-1-1-1-1|
C  :----------------------------------|---------------------------------|

D  :----------------------------------|---------------------------------|
A  :---------------------10---8-------|----11---10---8------------------|
F  :9---10---7--------------------10--|9--------------------------------|
C  :-------------0---0----------------|------------------0-0-0-0-0---7--|
G  :-------------0---0----------------|------------------0-0-0-0-0------|
C  :-------------0---0----------------|------------------0-0-0-0-0------|
                 *   *                                   * * * * *
============================================================================

                                                                       
D  :----------------------------------|--------------------------------|
A  :----------------------------------|--------------------------------|
F  :----------------------------------|--------------------------------|
C  :-----------------5-5--5-5-5-5--5-5|5-5-5-5-5-5--5-5----------------|
G  :1-1--1-1-1-1-1-1------------------|-----------------5-5-5-5-5-5-5-5|
C  :----------------------------------|--------------------------------|

D  :----------------------------------|--------------------------------|
A  :---------------------10---8-------|--------------------------------|
F  :9---10---7--------------------10--|9-------------------------------|
C  :-------------0---0----------------|----8-0-7-8-10---0-0-0-0-0---7--|
G  :-------------0---0----------------|-----------------0-0-0-0-0------|
C  :-------------0---0----------------|-----------------0-0-0-0-0------|

============================================================================

                                                       
D  :----------------------------------|-----------------------------|
A  :----------------------------------|-----------------------------|
F  :----------------------------------|-----------------------------|
C  :----------------------7-7-7-7--7-7|7-7--7-7--7-7-11-0-0-0-0-0---|
G  :5-5--5-5-5-5-5-5-5-5--------------|-----------------0-0-0-0-0---|
C  :----------------------------------|-----------------0-0-0-0-0---|

D  :----------------------------------|-----------------------------|
A  :---------------------10---8-------|----11---10---14-------------|
F  :9---10---7--------------------10--|9----------------------------|
C  :-------------0---0----------------|-----------------------------|
G  :-------------0---0----------------|-----------------------------|
C  :-------------0---0----------------|-----------------------------|
                 *   *
============================================================================

   This rhythm isn't right because it was tabbed to the demo, but it's easy to figure out.
D  :-------------------|-------------------|----------------|
A  :-------------------|-------------------|----------------|
F  :-------------------|-------------------|----------------|
C  :--0---0-----0-0-0-0|0-----0-----0-0-0-0|0-----0---0-----|
G  :--0---0-----0-0-0-0|0-----0-----0-0-0-0|0-----0---0-----|
C  :--0---0-----0-0-0-0|0-----0-----0-0-0-0|0-----0---0-----|

D  :-------------------|-------------------|----------------|
A  :-------------------|-------------------|----------------|
F  :-------------------|-------------------|----------------|
C  :-------------------|-------------------|----------------|
G  :-------------------|-------------------|----------------|
C  :-------------------|-------------------|----------------|

============================================================================

                                               
D  :-----------------------|----------------|--------------------|
A  :-----------------------|----------------|--------------------|
F  :-----------------------|----------------|--------------------|
C  :0-0-0-0-0---0---0-0-0-0|0-----0---0-----|0-0-0-0-0-----0-----|
G  :0-0-0-0-0---0---0-0-0-0|0-----0---0-----|0-0-0-0-0-----0-----|
C  :0-0-0-0-0---0---0-0-0-0|0-----0---0-----|0-0-0-0-0-----0-----|

D  :-----------------------|----------------|--------------------|
A  :-----------------------|----------------|--------------------|
F  :-----------------------|----------------|--------------------|
C  :-----------------------|----------------|--------------------|
G  :-----------------------|----------------|--------------------|
C  :-----------------------|----------------|--------------------|

============================================================================

                                                                        
D  :--------------------|--------------------|--------------------------|
A  :--------------------|--------------------|--------------------------|
F  :--------------------|--------------------|--------------------------|
C  :0-0-0-0-0-----0---0-|----0-0-0-0-0---0---|-0-0-0-0--0-------0-----0-|
G  :0-0-0-0-0-----0---0-|----0-0-0-0-0---0---|-0-0-0-0--0-------0-----0-|
C  :0-0-0-0-0-----0---0-|----0-0-0-0-0---0---|-0-0-0-0--0-------0-----0-|

D  :--------------------|--------------------|--------------------------|
A  :--------------------|--------------------|15-------15-15-15---15-10-|
F  :--------------------|--------------------|--------------------------|
C  :--------------------|--------------------|--------------------------|
G  :--------------------|--------------------|--------------------------|
C  :--------------------|--------------------|--------------------------|

============================================================================

                                                       
D  :-------------------------|-------------------------|
A  :-------------------------|-------------------------|
F  :-------------------------|-------------------------|
C  :------0-0-0-0--0-----0---|-0-0-0-0--0-------0----0-|
G  :------0-0-0-0--0-----0---|-0-0-0-0--0-------0----0-|
C  :------0-0-0-0--0-----0---|-0-0-0-0--0-------0----0-|

D  :-------------------------|-------------------------|
A  :--10-10-------10-11-10---|-------------------------|
F  :-------------------------|12-------12-12-12---12-7-|
C  :-------------------------|-------------------------|
G  :-------------------------|-------------------------|
C  :-------------------------|-------------------------|

============================================================================

                                                     
D  :----------------------|--------------------------|
A  :----------------------|--------------------------|
F  :----------------------|--------------------------|
C  :----0-0-0-0-0----0----|-0-0-0-0--0-------0-----0-|
G  :----0-0-0-0-0----0----|-0-0-0-0--0-------0-----0-|
C  :----0-0-0-0-0----0----|-0-0-0-0--0-------0-----0-|

D  :----------------------|--------------------------|
A  :--------------8-10-11-|15-------15-15-15---15-10-|
F  :--7-7-------7---------|--------------------------|
C  :----------------------|--------------------------|
G  :----------------------|--------------------------|
C  :----------------------|--------------------------|

============================================================================

                                                       
D  :-------------------------|-------------------------|
A  :-------------------------|-------------------------|
F  :-------------------------|-------------------------|
C  :------0-0-0-0--0-----0---|-0-0-0-0--0-------0----0-|
G  :------0-0-0-0--0-----0---|-0-0-0-0--0-------0----0-|
C  :------0-0-0-0--0-----0---|-0-0-0-0--0-------0----0-|

D  :-------------------------|-------------------------|
A  :--10-10-------10-11-10---|-------------------------|
F  :-------------------------|12-------12-12-12---12-7-|
C  :-------------------------|-------------------------|
G  :-------------------------|-------------------------|
C  :-------------------------|-------------------------|

============================================================================

                       Airy delay part to segue              
D  :----------------------|----------------------|---------------------|
A  :----------------------|----------------------|---------------------|
F  :----------------------|----------------------|---------------------|
C  :----0-0-0-0-0----0----|----------------------|---------------------|
G  :----0-0-0-0-0----0----|----------------------|---------------------|
C  :----0-0-0-0-0----0----|----------------------|---------------------|

D  :----------------------|----------------------|---------------------|
A  :--------------8-10-11-|15---15-15-15---15-10-|--10-10---10-11-10---|
F  :--7-7-------7---------|----------------------|---------------------|
C  :----------------------|----------------------|---------------------|
G  :----------------------|----------------------|---------------------|
C  :----------------------|----------------------|---------------------|

============================================================================

                                                                   
D  :---------------------|------------------|----------------------|
A  :---------------------|------------------|----------------------|
F  :---------------------|------------------|----------------------|
C  :---------------------|------------------|----------------------|
G  :---------------------|------------------|----------------------|
C  :---------------------|------------------|----------------------|

D  :---------------------|------------------|----------------------|
A  :-*-------------------|----------8-10-11-|15---15-15-15---15-10-|
F  :12---12-12-12---12-7-|--7-7---7-*-------|----------------------|
C  :---------------------|------------------|----------------------|
G  :---------------------|------------------|----------------------|
C  :---------------------|------------------|----------------------|

============================================================================

                                                                
D  :---------------------|---------------------|----------------|
A  :---------------------|---------------------|----------------|
F  :---------------------|---------------------|--------------7-|
C  :---------------------|---------------------|--------------8-|
G  :---------------------|---------------------|--------------8-|
C  :---------------------|---------------------|--------------8-|

D  :---------------------|---------------------|----------------|
A  :--10-10---10-11-10---|-*-------------------|----------------|
F  :---------------------|12---12-12-12---12-7-|----------*---7-|
C  :---------------------|---------------------|----------------|
G  :---------------------|---------------------|----------------|
C  :---------------------|---------------------|----------------|

============================================================================

                                                                 
D  :-----------------|----------------------|--------------------|
A  :-----------------|----------------------|--------------------|
F  :--7---7---7----7-|---7---------------10-|--10---10---10---10-|
C  :--8---8---8----8-|---8----0-0-0--0---12-|--12---12---12---12-|
G  :--8---8---8----8-|---8----0-0-0--0---12-|--12---12---12---12-|
C  :--8---8---8----8-|---8----0-0-0--0---12-|--12---12---12---12-|

D  :-----------------|----------------------|--------------------|
A  :-----------------|----------------------|-----------------10-|
F  :--7---7---7---10-|--10---10-----10------|----------9--7------|
C  :8---8---8---8----|8----8------8----8----|-----7--------------|
G  :-----------------|--------------------0-|5--8----------------|
C  :-----------------|----------------------|--------------------|

============================================================================

                                                              
D  :-----------------------|-----------------|----------------|
A  :-----------------------|-----------------|----------------|
F  :---10----10----10----9-|---9---9---9---9-|--9---9---9---9-|
C  :---12----12----12----6-|---6---6---6---6-|--6---6---6---7-|
G  :---12----12----12----7-|---7---7---7---7-|--7---7---7---7-|
C  :---12----12----12------|-----------------|--------------7-|

D  :---13-13-10-10---------|-----------------|----------------|
A  :10-------------11-11---|-----------------|----------------|
F  :---------------------9-|10-7-9-5-7-4-5-1-|4-5-2-----------|
C  :-----------------------|-----------------|------3-0-2-6-7-|
G  :-----------------------|-----------------|----------------|
C  :-----------------------|-----------------|----------------|

============================================================================

                                                         
D  :-----------------|-----------------|-----------------|
A  :-----------------|-----------------|-----------------|
F  :--9---9---9---10-|--10---9---9---7-|--7---7---7----7-|
C  :--7---7---7----7-|---7---7---7---8-|--8---8---8----8-|
G  :--7---7---7----7-|---7---7---7---8-|--8---8---8----8-|
C  :--7---7---7----7-|---7---7---7---8-|--8---8---8----8-|

D  :-----------------|-----------------|-----------------|
A  :-----------------|-----------------|-----------------|
F  :-----------------|-------1-1-4-4-7-|--7---7---7---10-|
C  :3--------------3-|3--3-3-----------|8---8---8---8----|
G  :--5-7-3-0-2-3----|-----------------|-----------------|
C  :-----------------|-----------------|-----------------|

============================================================================

                                                                       
D  :----------------------|--------------------|-----------------------|
A  :----------------------|--------------------|-----------------------|
F  :---7---------------10-|--10---10---10---10-|---10----10----10----9-|
C  :---8----0-0-0--0---12-|--12---12---12---12-|---12----12----12----6-|
G  :---8----0-0-0--0---12-|--12---12---12---12-|---12----12----12----7-|
C  :---8----0-0-0--0---12-|--12---12---12---12-|---12----12----12------|

D  :----------------------|--------------------|---13-13-10-10---------|
A  :----------------------|-----------------10-|10-------------11-11---|
F  :--10---10-----10------|----------9--7------|---------------------9-|
C  :8----8------8----8----|-----7---------0----|-----------------------|
G  :--------------------0-|5--8-----------0----|-----------------------|
C  :----------------------|---------------0----|-----------------------|
                                          *
============================================================================

                                                        
D  :-----------------|----------------|-----------------|
A  :-----------------|----------------|-----------------|
F  :---9---9---9---9-|--9---9---9---9-|--9---9---9---10-|
C  :---6---6---6---6-|--6---6---6---7-|--7---7---7----7-|
G  :---7---7---7---7-|--7---7---7---7-|--7---7---7----7-|
C  :-----------------|--------------7-|--7---7---7----7-|

D  :-----------------|----------------|-----------------|
A  :-----------------|----------------|-----------------|
F  :10-7-9-5-7-4-5-1-|4-5-2-----------|-----------------|
C  :-----------------|------3-0-2-6-7-|3--------------3-|
G  :-----------------|----------------|--5-7-3-0-2-3----|
C  :-----------------|----------------|-----------------|

============================================================================

                                                               
D  :-------------------|-------------------|-------------------|
A  :-------------------|-------------------|-------------------|
F  :--10---9---9-------|----10---7---------|----10---7---------|
C  :---7---7---7-0-0-0-|0-0----0---0-0-0-0-|0-0----0---0-7-7-7-|
G  :---7---7---7-0-0-0-|0-0----0---0-0-0-0-|0-0----0---0-7-7-7-|
C  :---7---7---7-0-0-0-|0-0----0---0-0-0-0-|0-0----0---0-7-7-7-|
                 * * *  * *    *   * * * *  * *    *   * * * *
D  :-------------------|-------------------|-------------------|
A  :-------------------|-------------------|-------------------|
F  :-------1-1-4-------|-------------------|-------------------|
C  :3--3-3-------------|-------------------|-------------------|
G  :-------------------|-------------------|-------------------|
C  :-------------------|-------------------|-------------------|

============================================================================

                                                            
D  :------------------|------------------|------------------|
A  :------------------|------------------|------------------|
F  :----9---5---------|----9---5---------|--------9---------|
C  :7-7---7---7-7-7-7-|7-7---7---7-------|----6-----6-------|
G  :7-7---7---7-7-7-7-|7-7---7---7-7-7-7-|7-7---7-----7-7-7-|
C  :7-7---7---7-7-7-7-|7-7---7---7-------|------------------|
    * *   *   * * * *  * *   *   * * * *  * *   *     * * *
D  :------------------|------------------|------------------|
A  :------------------|------------------|------------------|
F  :------------------|------------------|------------------|
C  :------------------|------------------|------------------|
G  :------------------|------------------|------------------|
C  :------------------|------------------|------------------|

============================================================================

                                                            
D  :------------------|------------------|------------------|
A  :------------------|------------------|------------------|
F  :--------9---------|----9-------------|----9-------------|
C  :----6-----6-7-7-7-|7-7---7-7-7-7-7-7-|7-7---7-7-7-0-0-0-|
G  :7-7---7-----7-7-7-|7-7---7---7-7-7-7-|7-7---7---7-0-0-0-|
C  :------------7-7-7-|7-7---7---7-7-7-7-|7-7---7---7-0-0-0-|
    * *   *     * * *  * *   *   * * * *  * *   *   * * * *
D  :------------------|------------------|------------------|
A  :------------------|------------------|------------------|
F  :------------------|------------------|------------------|
C  :------------------|------------------|------------------|
G  :------------------|------------------|------------------|
C  :------------------|------------------|------------------|

============================================================================

                                                              
D  :-------------------|-------------------|------------------|
A  :-------------------|-------------------|------------------|
F  :----10---7---------|----10---7---------|----9---5---------|
C  :0-0----0---0-0-0-0-|0-0----0---0-7-7-7-|7-7---7---7-7-7-7-|
G  :0-0----0---0-0-0-0-|0-0----0---0-7-7-7-|7-7---7---7-7-7-7-|
C  :0-0----0---0-0-0-0-|0-0----0---0-7-7-7-|7-7---7---7-7-7-7-|
    * *    *   * * * *  * *    *   * * * *  * *   *   * * * *
D  :-------------------|-------------------|----5-------------|
A  :----10---6---------|----10---6---------|--------5---------|
F  :-------------------|-------------------|------------------|
C  :-------------------|-------------------|------------------|
G  :-------------------|-------------------|------------------|
C  :-------------------|-------------------|------------------|

============================================================================

                                                            
D  :------------------|------------------|------------------|
A  :------------------|------------------|------------------|
F  :----9---5---------|--------9---------|--------9---------|
C  :7-7---7---7-------|----6-----6-------|----6-----6-7-7-7-|
G  :7-7---7---7-7-7-7-|7-7---7-----7-7-7-|7-7---7-----7-7-7-|
C  :7-7---7---7-------|------------------|------------7-7-7-|
    * *   *   * * * *  * *   *     * * *  * *   *     * * *
D  :----5-------------|------------------|------------------|
A  :--------5---------|--------9---------|--------9---------|
F  :------------------|----9-----9-------|----9-----9-------|
C  :------------9-9-9-|9-9---9-----9-9-9-|9-9---9-----------|
G  :------------------|------------------|------------------|
C  :------------------|------------------|------------------|
                * * *  * *   *     * * *  * *   *
============================================================================

                                                               
D  :-------------------|-------------------|-------------------|
A  :-------------------|-------------------|-------------------|
F  :----9--------------|----9--------------|----9--------------|
C  :7-7---7--7-7-7-7-7-|7-7---7--7-7-7-7-7-|7-7---7--7-7-7-7-7-|
G  :7-7---7----7-7-7-7-|7-7---7----7-7-7-7-|7-7---7----7-7-7-7-|
C  :7-7---7----7-7-7-7-|7-7---7----7-7-7-7-|7-7---7----7-7-7-7-|
    * *   *    * * * *  * *   *    * * * *  * *   *    * * * *
D  :----8--------------|----8--------------|----8--------------|
A  :--------10---------|--------10---------|--------10---------|
F  :-------------------|-------------------|-------------------|
C  :-------------------|-------------------|-------------------|
G  :-------------------|-------------------|-------------------|
C  :-------------------|-------------------|-------------------|

============================================================================

                                                                       
D  :----------------|----------------|----------------|----------------|
A  :----------------|----------------|----------------|----------------|
F  :----------------|----------------|----------------|----------------|
C  :7-7-7-*---------|----------------|----------------|----------------|
G  :7-7-7-*---------|----------------|----------------|----------------|
C  :7-7-7-*---------|----------------|----------------|----------------|
    * * *
D  :----------------|----------------|----------------|----------------|
A  :----------------|----------------|----------------|----------------|
F  :----------------|----------------|----------------|----------------|
C  :----------------|----------------|----------------|----------------|
G  :----------------|----------------|----------------|----------------|
C  :----------------|----------------|----------------|----------------|

============================================================================

                                                                       
D  :----------------|----------------|----------------|----------------|
A  :----------------|----------------|----------------|----------------|
F  :----------------|----------------|----------------|----------------|
C  :----------------|----------------|----------------|----------------|
G  :----------------|----------------|----------------|----------------|
C  :----------------|----------------|----------------|----------------|

D  :----------------|----------------|----------------|----------------|
A  :----------------|----------------|----------------|----------------|
F  :----------------|----------------|----------------|----------------|
C  :----------------|----------------|----0--0--0--0--|----------------|
G  :----------------|----------------|----0--0--0--0--|----------------|
C  :----------------|----------------|----0--0--0--0--|----------------|

============================================================================

                                                                       
D  :----------------|----------------|----------------|----------------|
A  :----------------|----------------|----------------|----------------|
F  :----------------|----------------|----------------|----------------|
C  :----------------|----------------|----------------|----------------|
G  :----------------|----------------|----------------|----------------|
C  :----------------|----------------|----------------|----------------|

D  :----------------|----------------|----------------|----------------|
A  :----------------|----------------|----------------|----------------|
F  :----------------|----------------|----------------|----------------|
C  :--0--0--0--0--0-|-0--------------|------0--0--3--3|--3--3----------|
G  :--0--0--0--0--0-|-0--------------|------0--0--3--3|--3--3----------|
C  :--0--0--0--0--0-|-0--------------|------0--0--3--3|--3--3----------|

============================================================================

                                                                       
D  :----------------|----------------|----------------|----------------|
A  :----------------|----------------|----------------|----------------|
F  :----------------|----------------|----------------|----------------|
C  :----------------|----------------|----------------|----------------|
G  :----------------|----------------|----------------|----------------|
C  :----------------|----------------|----------------|----------------|

D  :----------------|----------------|----------------|----------------|
A  :----------------|----------------|----------------|----------------|
F  :----------------|----------------|----------------|----------------|
C  :----------3--3--|7--7--7--7------|--------------7-|-7--0--0--0--0--|
G  :----------3--3--|7--7--7--7------|--------------7-|-7--0--0--0--0--|
C  :----------3--3--|7--7--7--7------|--------------7-|-7--0--0--0--0--|

============================================================================

                                                                       
D  :----------------|----------------|----------------|----------------|
A  :----------------|----------------|----------------|----------------|
F  :----------------|----------------|----------------|----------------|
C  :----------------|----------------|----------------|----------------|
G  :----------------|----------------|----------------|----------------|
C  :----------------|----------------|----------------|----------------|

D  :----------------|----------------|----------------|----------------|
A  :----------------|----------------|----------------|----------------|
F  :----------------|----------------|----------------|----------------|
C  :----------------|--0--0--0--0--0-|-0--------------|------0--0--3--3|
G  :----------------|--0--0--0--0--0-|-0--------------|------0--0--3--3|
C  :----------------|--0--0--0--0--0-|-0--------------|------0--0--3--3|

============================================================================

                                                                       
D  :----------------|----------------|----------------|----------------|
A  :----------------|----------------|----------------|----------------|
F  :----------------|----------------|----------------|----------------|
C  :----------------|----------------|----------------|----------------|
G  :----------------|----------------|----------------|----------------|
C  :----------------|----------------|----------------|----------------|

D  :----------------|----------------|----------------|----------------|
A  :----------------|----------------|----------------|----------------|
F  :----------------|----------------|----------------|----------------|
C  :--3--3----------|----------3--3--|7--7--7--7------|--------------7-|
G  :--3--3----------|----------3--3--|7--7--7--7------|--------------7-|
C  :--3--3----------|----------3--3--|7--7--7--7------|--------------7-|

============================================================================

                    
D  :----------------|
A  :----------------|
F  :----------------|
C  :----------------|
G  :----------------|
C  :----------------|

D  :----------------|
A  :----------------|
F  :----------------|
C  :-7-*------------|
G  :-7-*------------|
C  :-7-*------------|


            
            
Suggest correction
Creating personal tab
Creating personal tab
You can edit any tab online and save it as your Personal.

You can edit, replace or remove any tab part or add personal notes – all changes will be seen only by you.

Personal tabs can be accessed anytime from any device, even offline.
Learn more »
comments
print report bad tab
3 comments total.
0 reply
theFallofLirby 480 Feb 01, 2010 12:29 PM

finally, lot better than previous.

0 reply
zach895 10 Feb 20, 2011 05:39 AM

can you please put hammer-ons and pull offs where needed because the solo after the last breakdown makes so sense at all. it definitely has some in there and it'd be great if you could put those up!

0 reply
tonyanziano5 23 Dec 03, 2016 05:12 PM

Awesome tab

guest
You may want to rate the tab now too:
select rating
Wanna post a correction for this tab? Suggest correction