Oops, an error
Loading. Please wait.

Vital Signs tab

version 2
version 2

Whole song

Interactive

2,868 views 3 this week
no commentswrite comment
1 2 3 4 5
x 4
add to favorites
×
Save as Personal and add changes to this tab that will be seen only by you. Learn more ›
×
You can save this tab as Personal to edit and correct it or add notes. All changes will be seen only by you. Learn more »
launch autoscroll
font size
0
reset
how to read this tab
guitar tuner
edit
Autoscroll
slow
fast
+/-
esc
set tempo
stop
[Vital Signs]
[Messengers]
[August Burns Red]

im surprised no one else has challenged the only version on here! this
is much more correct. check the times to see when a riff starts n stops.
look to see if theres just one or two guitar parts. symbols at the bottum.
if my gp gets accepted you can use that for better reference. enjoy!

[Riff 1, Gtr 1 & 2] - [00:00] - [00:36] - 1--|3x
- -------------------------------------------|
- -------------------------------------------|
- -------------------------------------------|
- -------------------------------------------|
- -0-----------------------------------------|
- -0-----------------------------------------|
PM .
-
- -----------------------------10-9---------|-10-9---------|
- -----------------------10---------10------|------11-10---| (Alternate
- ---9-10-7---10-9/12-------12---------12\9-|--------------|  end at
- -7--------8---------11--------------------|--------------|  00:25 and
- ------------------------------------------|--------------|  00:36)
- ------------------------------------------|--------------|

[Riff 2] - [00:02] - [00:13]----------------------------------------| 2x
- ------------------------------------------------------------------|
- ------------------------------------------------------------------|
- ------------------------------------------------------------------|
- -----------------7-7-7-7-5-5-5-5-----3-3-3-3-2-2------------------|
- -0-0-0-0-8-8-8-8-----------------0-0-------------4-4-5-5-1-1-4-4--|
- ------------------------------------------------------------------|

[Riff 3] - [00:13] - [00:36]----------------------------------------| 4x
- ------------------------------------------------------------------|
- ------------------------------------------------------------------|
- ------------------------------------------------------------------|
- ------------------------------------------------------------------|
- -0000----0--0--0---000---0000-00-----0---0000000-------0-3-0-2----|
- -0000----0--0--0---000---0000-00-----0---0000000-------0-3-0-2----|
PM .............................................................

(each - is a 16th note, but just here for timing purposes in the breakdown.)

----------------------------------------------------------------------------

[Riff 4] - [00:36] - [00:57]
- -----------------------------------------|
- -----------------------------------------|
- -----------------------------------------| (Pay attention to the hammer ons
- -------------------------4h7p4p0-5h8p5p0-|  in this riff!)
- -4h5p4p0-0-0-5h8p5p0-0-0-----------------|
- ---------0-0---------0-0-----------------|
PM         ...         ...

- -------------------------------------------------|
- -------------------------------------------------|
- ---------------------------------------------6-9-|
- -------------------------4h5p4p0-7h8p7p0---------|
- -4h5p4p0-0-0-5h8p5p0-0-0-----------------000-----|
- ---------0-0---------0-0-----------------000-----|
PM         ...         ...                 ...

- -----------------------------------------|
- -----------------------------------------|
- -----------------------------------------|
- -------------------------4h7p4p0-5h8p5p0-|
- -4h5p4p0-0-0-5h8p5p0-0-0-----------------|
- ---------0-0---------0-0-----------------|
PM         ...         ...

- -------------------------------------------------|
- -------------------------------------------------|
- ---------------------------------------------6-9-|
- -------------------------4h5p4p0-7h8p7p0---------|
- -4h5p4p0-0-0-5h8p5p0-0-0-----------------000-----|
- ---------0-0---------0-0-----------------000-----|
PM         ...         ...                 ...

- -----------------------------------------|
- -----------------------------------------|
- -----------------------------------------|
- -------------------------4h7p4p0-5h8p5p0-|
- -4h5p4p0-0-0-5h8p5p0-0-0-----------------|
- ---------0-0---------0-0-----------------|
PM         ...         ...

- -------------------------------------------------|
- -------------------------------------------------|
- -------------------------------------------------|
- -------------------------4h5p4p0-7h8p7p0---------|
- -4h5p4p0-0-0-5h8p5p0-0-0-----------------000-0---|
- ---------0-0---------0-0-----------------000-0---|
PM         ...         ...                 .....

- -----------------------------------------|
- -----------------------------------------|
- -----------------------------------------|
- -------------------------4h7p4p0-5h8p5p0-|
- -4h5p4p0-0-0-5h8p5p0-0-0-----------------|
- ---------0-0---------0-0-----------------|
PM         ...         ...

- -----------------------------------------|
- -----------------------------------------|
- -----------------------------------------|
- -------------------------4h5p4p0-7h8p7p0-|
- -4h5p4p0-0-0-5h8p5p0-0-0-----------------|
- ---------0-0---------0-0-----------------|
PM         ...         ...

----------------------------------------------------------------------------

[Riff 5] - [00:57] - [00:58]
- -----------------|
- -----------------|
- -----------------|
- -----------------|
- -6-5-4-0-6-3-4-2-|
- -6-5-4-0-6-3-4-2-|
PM ...............

----------------------------------------------------------------------------

[Riff 6] - [00:58] - [01:23]
- -------------------------------------------------|
- ---------------------------------- (The - are 16-|th notes in measures
- -------------------------------------------------|  with the breakdown parts in them
- ---------88557744--------------------------------|  like this one, but not the next one,
- -55555-5----------5-5555-6-66-6-6----------------|  but the one after it, and so on.)
- -00000-0----------0-0000-0-00-0-0----------------|
PM .......          ...............

- ----------------------------------|
- ----------------------------------|
- ----------------------------------|
- -7h10p7p0-6h9p6p0-5h8p5p0-4h7p4p0-|
- ----------------------------------|
- ----------------------------------|

- -----------------|
- -----------------|
- -----------------|
- -----------------|
- -4-4444-4-4444-4-|
- -0-0000-0-0000-0-|
PM ...............

- ----------------------------------|
- ----------------------------------|
- ----------------------------------|
- ---------88557744-----------------|
- -55555-5----------5-5555-6-66-6-6-|
- -00000-0----------0-0000-0-00-0-0-|
PM .......          ...............

- ----------------------------------|
- ----------------------------------|
- ----------------------------------|
- -7h10p7p0-6h9p6p0-5h8p5p0-[5~]----|
- ----------------------------------|
- ----------------------------------|

- -----------------|
- -----------------|
- -----------------|
- -----------------|
- -4-4444-4-4444-4-|
- -0-0000-0-0000-0-|
PM ...............

- --------------------------------------------------|
- --------------------------------------------------|
- --------------------------------------------------|
- ---------88557744---------------------------------|
- -55555-5----------5-5555-6-66-6-6-4-4444-4-4444-4-|
- -00000-0----------0-0000-0-00-0-0-0-0000-0-0000-0-|
PM .......          ...............................

- ----------------------------------|
- ----------------------------------|
- ----------------------------------|
- -7h10p7p0-6h9p6p0-5h8p5p0-4h7p4p0-|
- ----------------------------------|
- ----------------------------------|

----------------------------------------------------------------------------

[Riff 6] - [01:23] - [01:28]
- -----------------------5---17-13------------------------------------------|
- ---------------2-3-5-------------15-14-11/15-14---------------------------|
- -----------2-3----------------------------------14------------------------|
- -0-----0-3-----------------------------------------14-15-14---------------|
- ------------------------------------------------------------17-13-15-12---|
- --------------------------------------------------------------------------|

----------------------------------------------------------------------------

[Riff 7] - [01:28] - [01:37]-------------| 2x
- ----------------------------17---13----|
- ------------------10---11--------------|
- ---------9---10------------------------|
- -----7---------------------------------|
- ---------------------------------------|
- -0-0---0---0----0----0----0----0----0--|
PM ...   .   .    .    .    .    .    .

- -17-13------------------------------------------|
- -------15-14-11/15-14---------------------------|
- ----------------------14------------------------|
- -------------------------14-15-14---------------|
- ----------------------------------17-13-15-12---|
- ------------------------------------------------|

----------------------------------------------------------------------------

[Riff 7] - [01:37] - [01:46]
- ----------------------------------|
- ----------------------------------|
- ----------------------------------|
- -7-------6-7-6---10-9-7-9-7-------|
- -7-000-0-------8------------8-5-0-|
- -7-000-0--------------------------|
PM   .....

- ----------------------------------|
- ----------------------------------|
- -----------------10-9-7-9-5-------|
- -7-------6-7-6--------------8-7-0-|
- -7-000-0-------8------------------|
- -7-000-0--------------------------|
PM   .....

- ----------------------------------|
- ----------------------------------|
- ----------------------------------|
- -7-------6-7-6---10-9-7-9-7-------|
- -7-000-0-------8------------8-5-0-|
- -7-000-0--------------------------|
PM   .....

- ----------------------------------|
- ----------------------------------|
- -----------------9-10-9-----------|
- -7-------6-7-6----------12-8-10-7-|
- -7-000-0-------8------------------|
- -7-000-0--------------------------|
PM   .....

----------------------------------------------------------------------------

[Riff 7] - [01:46] - [01:54] - 2x

[Riff 8] - [01:54] - [02:00]----| 4x
--------------------------------|
--------------------------------|
--------------------------------|
-14-15-14-----------------------|
----------17-13-15-12-13--------|
--------------------------------|

[Riff 9, Gtr 1 & 2] - [02:00] - [02:03]
- ------------------------------------------------|
- ------------------------------------------------|
- -12-13-12----------------12-13-12---------------|
- ----------15-14-15-14-------------15-14-15-14---|
- ----------------------15------------------------|
- ------------------------------------------------|
-
- ------------------------------------------------|
- ------------------------------------------------|
- ------------------------------------------------|
- -14-15-14----------------14-15-14---------------|
- ----------17-13-15-12-13----------17-13-15-12---|
- ------------------------------------------------|

----------------------------------------------------------------------------

[Riff 10, Gtr 1 & 2] - [02:03] - [02:15]
- -----------------------------------------------------------------|
- -----------------------------------------------------------------|
- ---------2-2-------------2-2-------------------------------------|
- -----3-3-----3-3-----3-3-----3-3---------3-3-------------3-3-----|
- -5-5-------------5-5-------------1-1-5-5-----5-5-0-0-5-5-----5-5-|
- -----------------------------------------------------------------|
-
- -----------------------------------------------------------------|
- -----------------------------------------------------------------|
- -----------------------------------------------------------------|
- -0~------------------------------8~--------------7~--------------|
- -0~------------------------------8~--------------7~--------------|
- -0~------------------------------8~--------------7~--------------|

- -----------------------------------------------------------------|
- -----------------------------------------------------------------|
- ---------2-2-------------2-2-------------------------------------|
- -----3-3-----3-3-----3-3-----3-3---------3-3-------------3-3-----|
- -5-5-------------5-5-------------1-1-5-5-----5-5-0-0-5-5-----5-5-|
- -----------------------------------------------------------------|
-
- ---------5---------------5---------------------------------------|
- ---------6---------------6---------------------------------------|
- ---------7---------------7---------------7---------------6-------|
- -0~------------------------------8~------x-------7~------x-------|
- -0~------------------------------8~------5-------7~------4-------|
- -0~------------------------------8~--------------7~--------------|

[Riff 11] - [02:15] - [02:39]---------------------------------------| 4x
- ------------------------------------------------------------------|
- ------------------------------------------------------------------|
- ---------2-2-------------2-2--------------------------------------|
- -----3-3-----3-3-----3-3-----3-3---------3-3-------------3-3------|
- -5-5-------------5-5-------------1-1-5-5-----5-5-0-0-5-5-----5-5--|
- ------------------------------------------------------------------|
-
- -----------------------------------------------------------------|
- -----------------------------------------------------------------|
- ---------9-9-------------9-9-------------7-7-------------7-7-----|
- -----7-7-----7-7-----7-7-----7-7-----8-8-----8-8-----7-7-----7-7-|
- -8-8-------------8-8-------------5-5-------------7-7-------------|
- -----------------------------------------------------------------|

[Riff 12] - [02:25] - [02:39]
- ------------------------------------------------------------|
- ------------------------------------------------------------|
- -----10------12------15------17------14-------10-----9------|
- -///-x-------x-------x-------x-------x--------x------x------|
- -///-8(16x)--10(8x)--13(6x)--15(2x)--12(16x)--8(8x)--7(7x)--|
- -///--------------------------------------------------------|

----------------------------------------------------------------------------

[Riff 4] - [02:39] - [03:00]
[Riff 5] - [03:00] - [03:02]

[Riff 6] - [03:02] - [03:17]
- -------------------------------------------------|
- ---------------------------------- (The - are 16-|th notes in measures
- -------------------------------------------------|  with the breakdown parts in them
- ---------88557744--------------------------------|  like this one, but not the next one,
- -55555-5----------5-5555-6-66-6-6----------------|  but the one after it, and so on.)
- -00000-0----------0-0000-0-00-0-0----------------|
PM .......          ...............

- ----------------------------------|
- ----------------------------------|
- ----------------------------------|
- -7h10p7p0-6h9p6p0-5h8p5p0-4h7p4p0-|
- ----------------------------------|
- ----------------------------------|

- -----------------|
- -----------------|
- -----------------|
- -----------------|
- -4-4444-4-4444-4-|
- -0-0000-0-0000-0-|
PM ...............

- ----------------------------------|
- ----------------------------------|
- ----------------------------------|
- ---------88557744-----------------|
- -55555-5----------5-5555-6-66-6-6-|
- -00000-0----------0-0000-0-00-0-0-|
PM .......          ...............

- ------------------------------------------|
- ------------------------------------------|
- ------------------------------------------|
- -7h10p7p0-6h9p6p0-5h8p5p0-[5~]------------|
- ----------------------------------0-------|
- ----------------------------------0-------|
PM                                  .

----------------------------------------------------------------------------

[Symbols]

PM... Palm Mute notes with (...) under them
/     Slide Up
\     Slide Down
h     Hammer On
p     Pull Off
[ ]   Pinch Harmonic
~     Let Ring
x     Dead Note
///   Pick Slide

:D
Suggest correction
Creating personal tab
Creating personal tab
You can edit any tab online and save it as your Personal.

You can edit, replace or remove any tab part or add personal notes – all changes will be seen only by you.

Personal tabs can be accessed anytime from any device, even offline.
Learn more »
comments
print report bad tab
guest
You may want to rate the tab now too:
select rating
Wanna post a correction for this tab? Suggest correction