Oops, an error
Loading. Please wait.

Sunday Best tab

version 4
version 4

Whole song

20,266 views 3 this week
4 commentsread comments
1 2 3 4 5
x 7
add to favorites
×
Save as Personal and add changes to this tab that will be seen only by you. Learn more ›
×
You can save this tab as Personal to edit and correct it or add notes. All changes will be seen only by you. Learn more »
launch autoscroll
font size
0
reset
how to read this tab
guitar tuner
edit
Autoscroll
slow
fast
+/-
esc
set tempo
stop
Author
Sunday Best by Augustana

I haven't seen a tab for this song that has the right intro. This sounds good but its my 
tab so rate/comment.  Listen to song to find the right rhythym.

Standard Tuning

***************************************************************************

Intro:

Guitar 1

e|-0--0--0--0-|
B|-0--0--0--3-|
G|-2--1--1--2-|
D|-4--2--2--0-|
A|-------4----|
E|------------|

Guitar 2

e|-12-12-12-12-12--12-14-16--16-14-12--7h9-9-9----------------------------|
B|---------------------------------------------12-10-9-10-10-10-9---------|
G|----------------------------------------------------------------11-9-11-|
D|------------------------------------------------------------------------|
A|------------------------------------------------------------------------|
E|------------------------------------------------------------------------|

***************************************************************************

Verse:

Guitar 1 (Same as Intro)

Guitar 2

e|-12-12-12-12-12-12-12-12-12-12-12-12-12-12-------------------------|
B|-------------------------------------------12h14-14-14-14-14-12-10-|
G|-------------------------------------------------------------------|
D|-------------------------------------------------------------------|
A|-------------------------------------------------------------------|
E|-------------------------------------------------------------------|

****************************************************************************

Pre-Chorus:

Guitar 1

e|-0--0--0-|
B|-3--2--0-|
G|-2--2--1-|
D|-0--2--2-|
A|----0--2-|
E|-------0-|

Guitar 2 (Same as verse)

Guitar 3 (clean electric)

e|-0-7-5--0-4-5--5-4-0-|
B|---------------------|
G|---------------------|
D|---------------------|
A|---------------------|
E|---------------------|

****************************************************************************

Chorus:

Guitar 1

e|-0--0--0-|
B|-3--0--0-|
G|-2--2--1-|
D|-0--2--2-|
A|----0--2-|
E|-------0-|


Guitar 2

e|-12-12-12-12-12-12-12-12-12-12-12-12-12-12-12-12-12-12-12----------|
B|-----------------------------------------------------------12-10-9-|
G|-------------------------------------------------------------------|
D|-------------------------------------------------------------------|
A|-------------------------------------------------------------------|
E|-------------------------------------------------------------------|

Guitar 3

e|-10-5-4~---10-5-/7~--|
B|---------------------|
G|---------------------|
D|---------------------|
A|---------------------|
E|---------------------|

****************************************************************************

Preverse and Outro:

Same as Intro

****************************************************************************

Lyrics:

When she's sleeping on the sofa,
When she's laying in her Sunday best,
when she's turning over Friday,
I could swear I'm sleeping less and less...
and the ocean's getting warmer,
and California's on her mind,
Los Angeles is tired, but we always seem to feel alright,

awoooo...
no i woooo...
no i woooooo....

Cause she's already out the door,
she's already out of here
she's already gone away...already gone away...

When I'm coming over Sunday
and I think about you all the time,
I wonder what you're doin
I wonder why you never cry,
When Boston's always raining,
And we never ever seemed alive,
I sung about you once now, I guess I might as well

awoooo...
no i woooo...
noo i woooooo....

Cause i'm already out the door,
i'm already out of here
i'm already gone away...already gone away...

Cause I'm already out of here
Shes already out here
i'm already gone away...already gone away...

Dont think about
Dont think about

****************************************************************************

There are some variations in the second verses and choruses for guitars 2 and 3 but u 
figure them out if u want. Great song, hope you like..
Suggest correction
Creating personal tab
Creating personal tab
You can edit any tab online and save it as your Personal.

You can edit, replace or remove any tab part or add personal notes – all changes will be seen only by you.

Personal tabs can be accessed anytime from any device, even offline.
Learn more »
comments
print report bad tab
4 comments total. Showing first comments.
0 reply
Tobias-777 10 Sep 14, 2007 03:26 PM

This is the only tab I found that had the into right, one of the others sounded close (if you play it in drop b tuning :P) but yeah, this is the only good tab of this song ;)

0 reply
kevinhu162 139 Oct 16, 2007 06:18 PM

Haha, ditto to Tobias, I like yours =)

+2 reply
godzeller 10 Jan 30, 2009 04:05 PM

the intro i think should b like this:

------0-0--0-------0-0-0-------0-0-------0-0-0-
------0-0--0-------0-0-0-------0-0-------0-0-0-
-2-2--2-2--2--1-1--1-1-1--1-1--1-1--0-0--------
-4-4--4-4--4--2-2--2-2-2--2-2--2-2--0-0--------
--------------------------4-4--4-4--0-0--------
-----------------------------------------------
other than that, great tab

guest
You may want to rate the tab now too:
select rating
Wanna post a correction for this tab? Suggest correction