Oops, an error
Loading. Please wait.

Sunday Best tab

version 5
version 5

Whole song

4,366 views 6 this week
1 commentread comment
1 2 3 4 5
x 4
add to favorites
×
Save as Personal and add changes to this tab that will be seen only by you. Learn more ›
×
You can save this tab as Personal to edit and correct it or add notes. All changes will be seen only by you. Learn more »
launch autoscroll
font size
0
reset
how to read this tab
guitar tuner
edit
Autoscroll
slow
fast
+/-
esc
set tempo
stop
Sunday Best by Augustana

My first tab ever!

The acoustic guitar part of the song..roughly it is played like this..I guess :)
The guitar is tuned in Open Dsus4 with capo on the second fret
Listen to the song for the strumming pattern..

Tuning Open Dsus4 (Capo 2)
 
Intro   
D|--0----0----0----0----|
A|--0----0----0----0----|
G|--0----0----0----0----|
D|--5----4----0----2----|
A|--7----5----2----3----|
D|----------------------|

Pre-chorus
D|--0----0----0--------|
A|--0----0----0--------|
G|--0----0----2--------|
D|--2----0----0--------|
A|--3----2----0--------|
D|---------------------|

Chorus
D|--0----0----0--------|
A|--0----0----0--------|
G|--0----0----2--------|
D|--2----0----0--------|
A|--3----2----0--------|
D|---------------------|

Outro   
D|--0----0----0----0----|
A|--0----0----0----0----|
G|--0----0----0----0----|
D|--5----4----0----2----|
A|--7----5----2----3----|
D|----------------------|

Very simple to play...any comment and suggestions/corrections most welcome..Have fun!!!

            
            
Suggest correction
Creating personal tab
Creating personal tab
You can edit any tab online and save it as your Personal.

You can edit, replace or remove any tab part or add personal notes – all changes will be seen only by you.

Personal tabs can be accessed anytime from any device, even offline.
Learn more »
comments
print report bad tab
1 comment total.
0 reply
mathil8 446 Jul 14, 2009 04:52 PM

Finally someone got the intro right! Damn open tunings!

guest
You may want to rate the tab now too:
select rating
Wanna post a correction for this tab? Suggest correction