Oops, an error
Loading. Please wait.

Meine Stadt Bass Tab

version 1
version 1

Whole song

472 views 1 this week
no commentswrite comment
1 2 3 4 5
please rate
add to favorites
launch autoscroll
font size
0
reset
guitar tuner
Autoscroll
slow
fast
+/-
esc
set tempo
stop
Help us to improve Ultimate-Guitar.com Take our survey!
×
Author
Meine Stadt - Auletta
Intro (0.21)
G|-----------------------------------------------------|
D|-----------------------------------------------------|   
A|----5-4p3--5-5-5-5p3h5-5-5-5-5p3---------------------|
E|----------------------------------6-6-6-66-5-5-5-55--|

Verse
G|--------------------------------------------|
D|--------------------------------------------|
A|---5-5-5-5p3h5-5-5-5-5p3--------------------|
E|-------------------------6-6-6-66-5-5-5-55--| X3

G|---------------------------------------------|
D|---------------------------------------------|   
A|---5-5-5-5p3h5-5-5-5-5p3---------------------|
E|------------------------6-6-6-66-5--5--5--5--|

Chorus
G|---------------------------------|
D|---------------------------------|   
A|---5--5-5---------8--8-8---------|
E|----------6--6-6----------5--4-3-| X2

G|-------------------------------|
D|-------------------------------|   
A|---2-2-2-2-2-2-2-2-3~-----(0)--|
E|-------------------------------|

Verse
G|--------------------------------------------|
D|--------------------------------------------|
A|---5-5-5-5p3h5-5-5-5-5p3--------------------|
E|-------------------------6-6-6-66-5-5-5-55--|

G|--------------------------------------------|
D|--------------------------------------------|
A|---5-5-5-5p3h5-5-5-5-5p3--------------------|
E|-------------------------6-6-6-66-5-5-5x----|

G|---------------------------------------------|
D|---------------------------------------------|   
A|---5-5-5-5p3h5-5-5-5-5p3---------------------|
E|------------------------6-6-6-66-5--5--5--5--|

Chorus
G|------------------------------|
D|------------------------------|   
A|---5--5-5--------8--8-8-------|
E|----------6--6-6--------5-4-3-| X2

G|-----------------------------------|
D|-----------------------------------|   
A|---2-2-2-2-2-2-2-2-3-3-3-3-3-3-3-3-|
E|-----------------------------------|

G|------------------------------|
D|------------------------------|   
A|---5--5-5--------8--8-8-------|
E|----------6--6-6--------5-4-3-| X2

G|-----------------------------------|
D|-----------------------------------|   
A|---2-2-2-2-2-2-2-2-3-3-3-3-3-3-3-3-|
E|-----------------------------------|

Vocal - no bass

Outro
G|------------------------------|
D|------------------------------|   
A|---5--5-5--------8--8-8-------|
E|----------6--6-6--------5-4-3-| X2

G|------------------------------------|\
D|------------------------------------| \
A|---5-5-5-5-5-5-5-5-8-8-8-8-8-8-8-8--|  \
E|------------------------------------|   \
		                	   X3
G|------------------------------------|   /
D|------------------------------------|  /
A|---2-2-2-2-2-2-2-2-3-3-3-3-3-3-3-3--| /
E|------------------------------------|/

G|------------------------------------|
D|------------------------------------|
A|---5-5-5-5-5-5-5-5-8/1--------------|
E|------------------------------------|

Alle Kommentare, Meinungenn und Korrigationen sind natuerlich wilkommen

By Bobert5
Suggest correction
Give kudos to tab author, rate the tab!
1 2 3 4 5
comments
print report bad tab
guest
You may want to rate the tab now too:
select rating
Please do not post tabs as comments. Select "correction" instead!