Oops, an error
Loading. Please wait.

Meine Stadt Bass Tab

version 2
version 2

Whole song

549 views 1 this week
no commentswrite comment
1 2 3 4 5
please rate
add to favorites
launch autoscroll
font size
0
reset
guitar tuner
Autoscroll
slow
fast
+/-
esc
set tempo
stop
Help us to improve Ultimate-Guitar.com Take our survey!
×
Author
Difficulty
novice
Intro:
G:-----------------|
D:---7-5-----------|
A:-------3---------|
E:-5---------------|

Verse 1:
G:-----------------------------------------------|
D:-----------------------------------------------|
A:-5-5-5-5-3-5-5-5-5-7-1-1-1-1-3-0-0-0-0-0-------|
E:-----------------------------------------------|

Verse 2:
G:----------------------------------------------|
D:----------------------------------------------|
A:-5-5-5-5-3-5-5-5-5-7-1-1-1-1-3-0-0-0-0--------|
E:----------------------------------------------|

Pre-Chorus:
G:---------------------------------------------|
D:---------------------------------------------|
A:-5-5-5-5-3-5-5-5-5-7-1-1-1-1-3-0--0--0--0----|
E:---------------------------------------------|

Chorus
G:-----------------------------------------------|
D:----------------8--3--7757---------------------|
A:-5--1-----0--5--------------11111111-3~-0~-----|
E:-------1---------------------------------------|

Chorus 2:
G:----------------------------------------------|
D:----------------8--3--7757--------------------|
A:-5--1-----0--5--------------11111111-33333333-|
E:-------1--------------------------------------|

Last Chorus Part 1:
G:----------------------------------------------|
D:----------------8--3--7757--------------------|
A:-5--1-----0--5--------------11111111-33333333-|
E:-------1--------------------------------------|

Last Chorus Part 2:
G:---------------------------------------------|
D:---------------------------------------------|
A:-55555555-88888888-11111111-33333333---------|
E:---------------------------------------------|

Last Chorus Part 3:
G:---------------------------------------------|
D:---------------------------------------------|
A:-55555555-88888888-11111111-3~---------------|
E:---------------------------------------------|

Song order
Intro
Verse 1 x3
Pre-chorus
Chorus
Verse 1
Verse 2
Pre-Chorus
Chorus 2 x2
Last Chorus Part 1
Last Chorus Part 2 x2
Last Chorus Part 3
Suggest correction
Give kudos to tab author, rate the tab!
1 2 3 4 5
comments
print report bad tab
guest
You may want to rate the tab now too:
select rating
Wanna post a correction for this tab? Suggest correction