Oops, an error
Loading. Please wait.

Little Boy In The Grass Acoustic tab

by Aurora
1,282 views 3 this week
no commentswrite comment
1 2 3 4 5
x 3
add to favorites
×
Save as Personal and add changes to this tab that will be seen only by you. Learn more ›
×
You can save this tab as Personal to edit and correct it or add notes. All changes will be seen only by you. Learn more »
launch autoscroll
font size
0
reset
how to read this tab
guitar tuner
edit
Autoscroll
slow
fast
+/-
esc
set tempo
stop
Author
Difficulty
Based on the Mahogany sessions version of the song, but it's simplified. 
Does sound alike and is not too difficult.


General picking patterns:

     Em                G                D                 C             A
e|---------------|-----------------|------2---------|---------------|-------------|
B|-----0---------|-------0---------|-----------3----|------1--------|----2--------|
G|-----------0---|--------------0--|------2---------|-----------0---|---------2---|
D|-----2---------|-------0---------|---0-----0------|------2--------|----2--------|
A|---------------|-----------------|----------------|---3-----3-----|-0-----0-----|
E|-0------0------|---3-------3-----|----------------|---------------|-------------|



'When will my healing come...' part is without the picking pattern:

     A     C   Em   D     A     C     Em     G     A
e|-------------------2--|-----------------------|---------------
B|----2----1----0----3--|--2-----1-----0-----0--|-----2---------
G|----2----0----0----2--|--2-----0-----0-----0--|----------2----
D|----2----2----2----0--|--2-----2-----2-----0--|-----2---------
A|----0----3------------|--0-----3--------------|--0-----0------
E|--------------0-------|--------------0-----3--|---------------

I play it wit no capo or a capo on the 2nd fret, but just do whatever you like ;)


Intro: play the Em shape several times

Em                   G                     Em                   G 
I will tell you the story about the little boy I found in the grass
Em                 G                          Em                G
Tired, solace, he told me he could hear the children wanting to pass
D          C        Em      A
Sounds of laughters in the air
D         C      Em    A
Still today we hear them

               Em        A
Finally we are over it, oh
               Em       A     C
Finally we are over it, ohhhhh

Em
(Let them run)
Em                     G
Let them run from the violence
                      Em                        G
The world is way too cold and bright for their eyes
Em                 G 
Little boy runs beside them
                   Em                   G
As they take his hands and jump to the sky
D        C      Em    A
Still today we hear them
             Em                A
Finally I am over it, over it oh
             Em              A
Finally I am over, over it oh

Em, A x2


A               C            Em            D           A
When will my healing come? when will my healing come along?
         C             Em             G          A
Sinking like a stone, when will my healing come along?

G,C,
Em             A
Finally I am over it, oh
Em             A
Finally I am over it, oh
Em             A
Finally I am, am...

            
            
Suggest correction
Creating personal tab
Creating personal tab
You can edit any tab online and save it as your Personal.

You can edit, replace or remove any tab part or add personal notes – all changes will be seen only by you.

Personal tabs can be accessed anytime from any device, even offline.
Learn more »
Give kudos to tab author, rate the tab!
1 2 3 4 5
comments
print report bad tab
guest
You may want to rate the tab now too:
select rating
Wanna post a correction for this tab? Suggest correction