Oops, an error
Loading. Please wait.
We have Chord Pro version of Murder Song 5 4 3 2 1.
It's the closest thing you can get to the original song and it has interactive parts. Check out the tab »
×

Murder Song 5 4 3 2 1 tab

version 2
version 2

Whole song

  • This version is based of this video (https://www.y... Show more

Interactive

Video

  • A breakdown of all sections with TAB and an explan... Show more
by Aurora
1,837 views 12 this week
2 commentsread comments
1 2 3 4 5
x 5
add to favorites
×
Save as Personal and add changes to this tab that will be seen only by you. Learn more ›
×
You can save this tab as Personal to edit and correct it or add notes. All changes will be seen only by you. Learn more »
launch autoscroll
font size
0
reset
how to read this tab
guitar tuner
edit
Autoscroll
slow
fast
+/-
esc
set tempo
stop
[Intro]

e|-----------------------0------------------------|-----------------------0------------------------|
B|-----------1-----------------------1-----------1|-----------1-----------------------1-----------1|
G|-----2-----------2-----------2-----------2------|-----2-----------2-----------2-----------2------|
D|--------2-----------2-----------2-----------2---|--------2-----------2-----------2-----------2---|
A|--0-----------0-----------0-----------0---------|------------------------------------------------|
E|------------------------------------------------|--3-----------3-----------3-----------3---------|

e|-----------------------0------------------------|-----------------------0------------------------|
B|-----------1-----------------------1-----------1|-----------0-----------------------0-----------0|
G|-----2-----------2-----------2-----------2------|-----0-----------0-----------0-----------0------|
D|--------3-----------3-----------3-----------3---|--------0-----------0-----------0-----------0---|
A|------------------------------------------------|------------------------------------------------|
E|--1-----------1-----------1-----------1---------|--3-----------3-----------3-----------3---------|


[Verse]

e|-----------------------0------------------------|-----------------------0------------------------|
B|-----------1-----------------------1-----------1|-----------1-----------------------1-----------1|
G|-----2-----------2-----------2-----------2------|-----2-----------2-----------2-----------2------|
D|--------2-----------2-----------2-----------2---|--------2-----------2-----------2-----------2---|
A|--0-----------0-----------0-----------0---------|------------------------------------------------|
E|------------------------------------------------|--3-----------3-----------3-----------3---------|
    Five,       four,       three,      two,         one.

e|-----------------------0------------------------|-----------------------0------------------------|
B|-----------1-----------------------1-----------1|-----------0-----------------------0-----------0|
G|-----2-----------2-----------2-----------2------|-----0-----------0-----------0-----------0------|
D|--------3-----------3-----------3-----------3---|--------0-----------0-----------0-----------0---|
A|------------------------------------------------|------------------------------------------------|
E|--1-----------1-----------1-----------1---------|--3-----------3-----------3-----------3---------|
    Five,       four,       three,      two,         one.

e|-----------------------0------------------------|-----------------------0------------------------|
B|-----------1-----------------------1-----------1|-----------1-----------------------1-----------1|
G|-----2-----------2-----------2-----------2------|-----2-----------2-----------2-----------2------|
D|--------2-----------2-----------2-----------2---|--------2-----------2-----------2-----------2---|
A|--0-----------0-----------0-----------0---------|------------------------------------------------|
E|------------------------------------------------|--3-----------3-----------3-----------3---------|
    He       holds                               the gun
         a -

e|-----------------------0------------------------|-----------------------0------------------------|
B|-----------1-----------------------1-----------1|-----------0-----------------------0-----------0|
G|-----2-----------2-----------2-----------2------|-----0-----------0-----------0-----------0------|
D|--------3-----------3-----------3-----------3---|--------0-----------0-----------0-----------0---|
A|------------------------------------------------|------------------------------------------------|
E|--1-----------1-----------1-----------1---------|--3-----------3-----------3-----------3---------|
  - gainst                                       my  head.
                      [...]

This is what is played for the rest of the song, except for the bridge (see below).

[Bridge]

e|-----------------------0------------------------|-----------------------2------------------------|
B|-----------1-----------------------1-----------1|-----------1-----------------------1-----------1|
G|-----2-----------2-----------2-----------2------|-----2-----------2-----------2-----------2------|
D|--------3-----------3-----------3-----------3---|--------0-----------0-----------0-----------0---|
A|------------------------------------------------|------------------------------------------------|
E|--1-----------1-----------1-----------1---------|--2-----------2-----------2-----------2---------|

e|-----------------------3------------------------|-----------------------0------------------------|
B|-----------0-----------------------0-----------0|-----------3-----------------------3-----------3|
G|-----0-----------0-----------0-----------0------|-----4-----------4-----------4-----------4------|
D|--------0-----------0-----------0-----------0---|--------0-----------0-----------0-----------0---|
A|------------------------------------------------|------------------------------------------------|
E|--3-----------3-----------3-----------3---------|--4-----------4-----------4-----------4---------|

e|-----------------------0------------------------|-----------------------0------------------------|
B|-----------1-----------------------1-----------1|-----------1-----------------------1-----------1|
G|-----2-----------2-----------2-----------2------|-----2-----------2-----------2-----------2------|
D|--------3-----------3-----------3-----------3---|--------0-----------0-----------0-----------0---|
A|------------------------------------------------|------------------------------------------------|
E|--1-----------1-----------1-----------1---------|--2-----------2-----------2-----------2---------|

e|-----------------------0------------------------|-----------------------0------------------------|
B|-----------0-----------------------0-----------0|-----------3----------------3-------------------|
G|-----0-----------0-----------0-----------0------|-----4---------4-------------------4------------|
D|--------0-----------0-----------0-----------0---|--------0----------0----------------------------|
A|------------------------------------------------|------------------------------------------------|
E|--3-----------3-----------3-----------3---------|--4---------------------------------------------|


[Outro] x2

e|-----------------------0------------------------|-----------------------0------------------------|
B|-----------1-----------------------1-----------1|-----------1-----------------------1-----------1|
G|-----2-----------2-----------2-----------2------|-----2-----------2-----------2-----------2------|
D|--------2-----------2-----------2-----------2---|--------2-----------2-----------2-----------2---|
A|--0-----------0-----------0-----------0---------|------------------------------------------------|
E|------------------------------------------------|--3-----------3-----------3-----------3---------|


                                                  |--- 1st time
e|-----------------------0------------------------|-----------------------0------------------------|
B|-----------1-----------------------1-----------1|-----------0-----------------------0-----------0|
G|-----2-----------2-----------2-----------2------|-----0-----------0-----------0-----------0------|
D|--------3-----------3-----------3-----------3---|--------0-----------0-----------0-----------0---|
A|------------------------------------------------|------------------------------------------------|
E|--1-----------1-----------1-----------1---------|--3-----------3-----------3-----------3---------|

                                                  |--- 2nd time
                                                 e|------------------------------------------------|
                                                 B|------------------------------------------------|
                                                 G|------------------------------------------------|
                                                 D|------------------------------------------------|
                                                 A|------------------------------------------------|
                                                 E|--3---------------------------------------------|

[Lyrics and chords]

[Am]        [Am/G]
 5, 4, 3, 2, 1
[F]         [G]
 5, 4, 3, 2, 1

[Am]         [Am/G][F]      [G]
 He holds the gun against my head
  [Am]     [Am/G]   [F]       [G]
 I close my eyes and bang I am dead
  [Am]    [Am/G]          [F]            [G]
 I know he knows that he’s killing me for mercy

           [Am]
 And here I go
         [Am/G]
 Oh oh oh oh
         [F]
 Oh oh oh oh
         [G]
 Oh oh oh oh
           [Am]
 And here I go
         [Am/G]
 Oh oh oh oh
         [F]
 Oh oh oh oh
         [G]
 Oh oh oh oh

   [Am]
 He holds my body in his arms
   [Am/G]
 He didn't mean to do no harm
      [F]       [G]
 And he holds me tight

       [Am]                              [Am/G]
 Oh, he did it all to spare me from the awful things in life that come
      [F]        [G]
 And he cries and cries
[Am]      [Am/G]          [F]            [G]
 I know he knows that he’s killing me for mercy

           [Am]
 And here I go
         [Am/G]
 Oh oh oh oh
         [F]
 Oh oh oh oh
         [G]
 Oh oh oh oh
           [Am]
 And here I go
         [Am/G]
 Oh oh oh oh
         [F]
 Oh oh oh oh
         [G]
 Oh oh oh oh

   [F]
 He holds my body in his arms
   [F#m11]
 He didn't mean to do no harm
      [G]       [E7]
 And he holds me tight
       [F]                             [F#m11]
 Oh, he did it all to spare me from the awful things in life that come
      [G]        [E7]
 And he cries and cries

[Am]        [Am/G]
 5, 4, 3, 2, 1
[F]         [G]
 5, 4, 3, 2, 1


 The gun is gone

 And so am I

 And here I go
Suggest correction
Creating personal tab
Creating personal tab
You can edit any tab online and save it as your Personal.

You can edit, replace or remove any tab part or add personal notes – all changes will be seen only by you.

Personal tabs can be accessed anytime from any device, even offline.
Learn more »
comments
print report bad tab
2 comments total.
0 reply
Sophix 587 Apr 19, 2016 02:09 PM

Ok, so the progression for each chord should be like:
|---------------0-----------------|
|-------1---------------1---------|
|---2-------2-------2-------2---2-|
|-----2-------2-------2-------2---|
|-0-------0-------0-------0-------|
|---------------------------------|

Otherwise these are the most accurate chords I've found! You should add the chords above the lyrics aswell. Nice work!

guest
You may want to rate the tab now too:
select rating
Wanna post a correction for this tab? Suggest correction