Oops, an error
Loading. Please wait.
We have Chord Pro version of Murder Song 5 4 3 2 1.
It's the closest thing you can get to the original song and it has interactive parts. Check out the tab »
×

Murder Song 5 4 3 2 1 Acoustic tab

version 3
version 3

Whole song

  • This version is based of this video (https://www.y... Show more

Interactive

Video

  • A breakdown of all sections with TAB and an explan... Show more
by AURORA
1,021 views 33 this week
2 commentsread comments
1 2 3 4 5
x 6
add to favorites
×
Save as Personal and add changes to this tab that will be seen only by you. Learn more ›
×
You can save this tab as Personal to edit and correct it or add notes. All changes will be seen only by you. Learn more »
launch autoscroll
font size
0
reset
how to read this tab
guitar tuner
edit
Autoscroll
slow
fast
+/-
esc
set tempo
stop
This is the main progression for most of the song, repeat it pretty much the entire time

[Stave 1]
E|-------------0-------------------------0-------------------------0-------------|
B|-------1-----------1-------------1-----------1-------------1-----------1-------|
G|---2-----2-----2-----2---2---2-----2-----2-----2---2---2-----2-----2-----2---2-|
D|-----2-----2-----2-----2-------2-----2-----2-----2-------2-----2-----2-----2---|
A|-0-----------------------------------------------------------------------------|
E|---------------------------3-------------------------1-------------------------|

[Stave 2]
E|-------------0-----------|
B|-------0-----------0-----|
G|---0-----0-----0-----0---|
D|-----0-----0-----0-----0-|
A|-------------------------|
E|-3-----------------------|

Around 2:23, there is a key change and you play this twice

[Stave 1]
E|-------------0-----------------------0-----------------------0-----------------------0-----------|
B|-------1-----------1-----------1-----------1-----------0-----------0-----------0-----------0-----|
G|---2-----2-----2-----2-----2-----2-----2-----2-----0-----0-----0-----0-----0-----0-----0-----0---|
D|-----2-----2-----2-----2-----0-----0-----0-----0-----0-----0-----0-----0-----0-----0-----0-----0-|
A|-------------------------------------------------------------------------------------------------|
E|-1-----------------------2-----------------------3-----------------------4-----------------------|

            
            
Suggest correction
Creating personal tab
Creating personal tab
You can edit any tab online and save it as your Personal.

You can edit, replace or remove any tab part or add personal notes – all changes will be seen only by you.

Personal tabs can be accessed anytime from any device, even offline.
Learn more »
comments
print report bad tab
2 comments total.
0 reply
jacq.groenewald 10 Jun 10, 2017 09:26 AM

Nice tab if you just want to fool around with your guitar

+2 reply
ramon.mock 10 Jul 28, 2017 06:42 AM

wow. simple but amazing!

guest
You may want to rate the tab now too:
select rating
Wanna post a correction for this tab? Suggest correction