Oops, an error
Loading. Please wait.

Oh No Not You Again intro tab

version 2
version 2

Intro

Interactive

Video

496 views 15 this week
no commentswrite comment
1 2 3 4 5
1 last vote to show rating
add to favorites
×
Save as Personal and add changes to this tab that will be seen only by you. Learn more ›
×
You can save this tab as Personal to edit and correct it or add notes. All changes will be seen only by you. Learn more »
launch autoscroll
font size
0
reset
how to read this tab
guitar tuner
edit
Autoscroll
slow
fast
+/-
esc
set tempo
stop
Author
Difficulty
-------------------------------------------------------------------------------
                             OH NO NOT YOU AGAIN - Australian Crawl
-------------------------------------------------------------------------------
Tabbed by: silgoutz


Tuning: EADGBe

e|------------------------------|--------------------------------------------|
B|------10/12\10----------10----|-----5h7p5h7p5-----5------------------------|
G|----------------9--11---------|---------------6------7---------------------|
D|--0---------------------------|--------------------------------------------|
A|------------------------------|--0-----------------------------------------|
E|------------------------------|--------------------------------------------|

e|-----3------------3---|------------------------2---------------------------|
B|-----3----------3-----|--------0------0--------3---------------------------|
G|-----4---4--0h4-------|------0------0------0---2---let ring----------------|
D|-5--------------------|----5------4------2-----0---------------------------|
A|----------------------|----------------------------------------------------|
E|----------------------|----------------------------------------------------|

e|--(2)----------------------------|-----------------------------------------|
B|--(3)----10/12\10----------10----|-----5h7p5h7p5-----5---------------------|
G|--(2)--------------9--11---------|---------------6------7------------------|
D|--(0)----------------------------|-----------------------------------------|
A|---------------------------------|--0--------------------------------------|
E|---------------------------------|-----------------------------------------|

e|-----3------------3---|------------------------2---------------------------|
B|-----3----------3-----|--------0------0--------3---------------------------|
G|-----4---4--0h4-------|------0------0------0---2---------------------------|
D|-5--------------------|----5------4------2-----0---------------------------|
A|----------------------|----------------------------------------------------|
E|----------------------|----------------------------------------------------|
All credit to discostud who did a great job of it in version 1. I've just put it right way up and made
some tiny variations that made it a bit easier for me.

Chords are just D | A | G | G || throughout.

For a bit of variation you can play D | A | G | G G/F# Em || during the chorus.

      G/F#
e|-----3-----|
B|-----3-----|
G|-----0-----|
D|-----0-----|
A|-----0-----|
E|-----2-----|


Let me tell you about two young lovers that lived down the coast
She was such a pretty thing... Man what a host
Evening time she sets the table for four
Some friends are coming round tonight
He's out on the town, he's trying to score

Woke up early this morning something's got his mind
Cursing the night before... Breakfast at nine
Felt him restless whoa all through the night
She sees that something is wrong with him
She don't want to cry she just wants to know why

Oh, oh, oh, oh... Oh, no not you again
Oh, oh, oh, oh... Oh, no not you again

Don't own a swimming pool not even a colour tv
Works awful hard some days... She lets him be
You know it ain't looking good for them no loving no more
Some friends are coming round tonight he's out on the town
He's knocking on the wrong door

Oh, oh, oh, oh... Oh, no not you again
Oh, oh, oh, oh... Oh, no not you again
Oh, oh, oh, oh... Oh, no not you again,
She's gone, she's gone, she's gone, she's gone yeah

[Repeat 1st verse & chorus]

Oh, oh, oh, oh... Oh, no not you again [repeat & fade]


************************************

| /   slide up
| \   slide down
| h   hammer-on
| p   pull-off
| ~   vibrato
| +   harmonic
| x   Mute note
| b   Bend
| pb  Pre-bend
| br  Bend release
| pbr Pre-bend release
| brb Bend release bend

************************************
Suggest correction
Creating personal tab
Creating personal tab
You can edit any tab online and save it as your Personal.

You can edit, replace or remove any tab part or add personal notes – all changes will be seen only by you.

Personal tabs can be accessed anytime from any device, even offline.
Learn more »
Give kudos to tab author, rate the tab!
1 2 3 4 5
comments
print report bad tab
guest
You may want to rate the tab now too:
select rating
Wanna post a correction for this tab? Suggest correction