Oops, an error
Loading. Please wait.

1234 tab

version 2
version 2

Whole song

Interactive

1,745 views 1 this week
1 commentread comment
1 2 3 4 5
2 more votes to show rating
add to favorites
×
Save as Personal and add changes to this tab that will be seen only by you. Learn more ›
×
You can save this tab as Personal to edit and correct it or add notes. All changes will be seen only by you. Learn more »
launch autoscroll
font size
0
reset
how to read this tab
guitar tuner
edit
Autoscroll
slow
fast
+/-
esc
set tempo
stop
Author
Difficulty
12:34
From the album 12:34
Tabbed by Sumforty1f AKA Tony
                                                                      Authority Zero
Guitar 1



      E   E   E   E   E   E   E   E      E   E   E   E   E   E   E   E   
E||----------------------------------|----------------------------------|
B||--17------17------17------17------|--15------15------15------15------|
G||------16------16------16------16--|------16------16------16------16--|
D||----------------------------------|----------------------------------|
A||----------------------------------|----------------------------------|
E||----------------------------------|----------------------------------|

   E   E   E   E   E   E   E   E      E   E   E   E   E   E   E   E   
----------------------------------|----------------------------------|
--14------14------14------14------|--15------15------15------15------|
------14------14------14------14--|------16------16------16------16--|
----------------------------------|----------------------------------|
----------------------------------|----------------------------------|
----------------------------------|----------------------------------|

   E   E   E   E   E   E   E   E      E   E   E   E   E   E   E   E   
----------------------------------|----------------------------------|
--17------17------17------17------|--15------15------15------15------|
------16------16------16------16--|------16------16------16------16--|
----------------------------------|----------------------------------|
----------------------------------|----------------------------------|
----------------------------------|----------------------------------|

   E   E   E   E   E   E   E   E      E   E   E   E   E   E   E   E   
----------------------------------|----------------------------------|
--14------14------14------14------|--15------15------15------15------|
------14------14------14------14--|------16------16------16------16--|
----------------------------------|----------------------------------|
----------------------------------|----------------------------------|
----------------------------------|----------------------------------|

   E   E   E   E   E   E   E   E      E   E   E   E   E   E   E   E   
----------------------------------|----------------------------------|
--17------17------17------17------|--15------15------15------15------|
------16------16------16------16--|------16------16------16------16--|
----------------------------------|----------------------------------|
----------------------------------|----------------------------------|
----------------------------------|----------------------------------|

   E   E   E   E   E   E   E   E      E   E   E   E   E   E   E   E   
----------------------------------|----------------------------------|
--14------14------14------14------|--15------15------15------15------|
------14------14------14------14--|------16------16------16------16--|
----------------------------------|----------------------------------|
----------------------------------|----------------------------------|
----------------------------------|----------------------------------|

   E   E   E   E   E   E   E   E      E   E   E   E   E   E   E   E   
----------------------------------|----------------------------------|
--17------17------17------17------|--15------15------15------15------|
------16------16------16------16--|------16------16------16------16--|
----------------------------------|----------------------------------|
----------------------------------|----------------------------------|
----------------------------------|----------------------------------|

   E   E   E   E   E   E   E   E      E   E   E   E   E   E   E   E   
----------------------------------|----------------------------------|
--14------14------14------14------|--15------15------15------15------|
------14------14------14------14--|------16------16------16------16--|
----------------------------------|----------------------------------|
----------------------------------|----------------------------------|
----------------------------------|----------------------------------|
   E   E   E   E   E   E   E   E     E   E  E   E  E   E  E   E     E  E  E  E  E  E  E   E   
----------------------------------|------------------------------|---------------------------|
----------------------------------|------------------------------|---------------------------|
----------------------------------|------------------------------|---------------------------|
----------------------------------|------------------------------|---------------------------|
------14------14------14S--9------|--9------9------9------9------|--7-----7-----7-----9------|
--12------12------12----------10--|-----10-----10-----10-----10--|-----8-----8-----8-----10--|

 E   E  E   E  E   E  E   E      E   E   E   E   E   E  E   E     E   E  E   E  E   E  E   E   
-----------------------------|---------------------------------|------------------------------|
-----------------------------|---------------------------------|------------------------------|
-----------------------------|---------------------------------|------------------------------|
-----------------------------|---------------------------------|------------------------------|
-9------9------9------9------|------14------14------14--9------|--9------9------9------9------|
----10-----10-----10-----10--|--12------12------12---------10--|-----10-----10-----10-----10--|

  E  E  E  E  E  E  E   E     E   E  E   E  E   E  E   E   
---------------------------|------------------------------|
---------------------------|------------------------------|
---------------------------|------------------------------|
---------------------------|------------------------------|
--7-----7-----7-----9------|--9------9------9------9------|
-----8-----8-----8-----10--|-----10-----10-----10-----10--|

     PM PM PM PM PM PM      PM PM PM PM PM PM      PM PM PM PM PM PM    PM PM PM PM PM PM  
  E  S  S  S  S  S  S   E   S  S  S  S  S  S    E  S  S  S  S  S  S  E  S  S  S  S  S  S   
---------------------------------------------|--------------------------------------------|
---------------------------------------------|--------------------------------------------|
---------------------------------------------|--------------------------------------------|
--9--------------------12--------------------|--2--------------------5--------------------|
--7--7--7--7--7--7--7--10--10-10-10-10-10-10-|--0--0--0--0--0--0--0--3--3--3--3--3--3--3--|
---------------------------------------------|--------------------------------------------|

     PM PM    PM PM    PM PM    PM PM       PM PM    PM PM    PM PM    PM PM  
  E  S  S  E  S  S  E  S  S  E  S  S     E  S  S  E  S  S  E  S  S  E  S  S   
--------------------------------------|--------------------------------------|
--------------------------------------|--------------------------------------|
--------------------------------------|--------------------------------------|
--4--------4--------4--------4--------|--5--------5--------4--------4--------|
--2--2--2--2--2--2--2--2--2--2--2--2--|--3--3--3--3--3--3--2--2--2--2--2--2--|
--------------------------------------|--------------------------------------|

     PM PM PM PM PM PM      PM PM PM PM PM PM      PM PM PM PM PM PM    PM PM PM PM PM PM  
  E  S  S  S  S  S  S   E   S  S  S  S  S  S    E  S  S  S  S  S  S  E  S  S  S  S  S  S   
---------------------------------------------|--------------------------------------------|
---------------------------------------------|--------------------------------------------|
---------------------------------------------|--------------------------------------------|
--9--------------------12--------------------|--2--------------------5--------------------|
--7--7--7--7--7--7--7--10--10-10-10-10-10-10-|--0--0--0--0--0--0--0--3--3--3--3--3--3--3--|
---------------------------------------------|--------------------------------------------|
     PM PM    PM PM    PM PM    PM PM       PM PM    PM PM    PM PM    PM PM  
  E  S  S  E  S  S  E  S  S  E  S  S     E  S  S  E  S  S  E  S  S  E  S  S   
--------------------------------------|--------------------------------------|
--------------------------------------|--------------------------------------|
--------------------------------------|--------------------------------------|
--4--------4--------4--------4--------|--5--------5--------4--------4--------|
--2--2--2--2--2--2--2--2--2--2--2--2--|--3--3--3--3--3--3--2--2--2--2--2--2--|
--------------------------------------|--------------------------------------|

     PM PM PM PM PM PM      PM PM PM PM PM PM      PM PM PM PM PM PM    PM PM PM PM PM PM  
  E  S  S  S  S  S  S   E   S  S  S  S  S  S    E  S  S  S  S  S  S  E  S  S  S  S  S  S   
---------------------------------------------|--------------------------------------------|
---------------------------------------------|--------------------------------------------|
---------------------------------------------|--------------------------------------------|
--9--------------------12--------------------|--2--------------------5--------------------|
--7--7--7--7--7--7--7--10--10-10-10-10-10-10-|--0--0--0--0--0--0--0--3--3--3--3--3--3--3--|
---------------------------------------------|--------------------------------------------|

     PM PM    PM PM    PM PM    PM PM       PM PM    PM PM    PM PM    PM PM  
  E  S  S  E  S  S  E  S  S  E  S  S     E  S  S  E  S  S  E  S  S  E  S  S   
--------------------------------------|--------------------------------------|
--------------------------------------|--------------------------------------|
--------------------------------------|--------------------------------------|
--4--------4--------4--------4--------|--5--------5--------4--------4--------|
--2--2--2--2--2--2--2--2--2--2--2--2--|--3--3--3--3--3--3--2--2--2--2--2--2--|
--------------------------------------|--------------------------------------|

     PM PM PM PM PM PM      PM PM PM PM PM PM      PM PM PM PM PM PM    PM PM PM PM PM PM  
  E  S  S  S  S  S  S   E   S  S  S  S  S  S    E  S  S  S  S  S  S  E  S  S  S  S  S  S   
---------------------------------------------|--------------------------------------------|
---------------------------------------------|--------------------------------------------|
---------------------------------------------|--------------------------------------------|
--9--------------------12--------------------|--2--------------------5--------------------|
--7--7--7--7--7--7--7--10--10-10-10-10-10-10-|--0--0--0--0--0--0--0--3--3--3--3--3--3--3--|
---------------------------------------------|--------------------------------------------|

     PM PM    PM PM    PM PM    PM PM                                                              
  E  S  S  E  S  S  E  S  S  E  S  S      Q     Q    Q    Q        E   E   E   E   E   E   E   E   
--------------------------------------|------------------------|----------------------------------|
--------------------------------------|------------------------|----------------------------------|
--------------------------------------|--12----11----9----7----|----------------------------------|
--4--------4--------4--------4--------|--12----11----9----7----|----------------------------------|
--2--2--2--2--2--2--2--2--2--2--2--2--|--10-----9----7----5----|------14------14------14S--9------|
--------------------------------------|------------------------|--12------12------12----------10--|

  E   E  E   E  E   E  E   E     E  E  E  E  E  E  E   E     E   E  E   E  E   E  E   E   
------------------------------|---------------------------|------------------------------|
------------------------------|---------------------------|------------------------------|
------------------------------|---------------------------|------------------------------|
------------------------------|---------------------------|------------------------------|
--9------9------9------9------|--7-----7-----7-----9------|--9------9------9------9------|
-----10-----10-----10-----10--|-----8-----8-----8-----10--|-----10-----10-----10-----10--|

   E   E   E   E   E   E   E   E     E   E  E   E  E   E  E   E     E  E  E  E  E  E  E   E   
----------------------------------|------------------------------|---------------------------|
----------------------------------|------------------------------|---------------------------|
----------------------------------|------------------------------|---------------------------|
----------------------------------|------------------------------|---------------------------|
------14------14------14S--9------|--9------9------9------9------|--7-----7-----7-----9------|
--12------12------12----------10--|-----10-----10-----10-----10--|-----8-----8-----8-----10--|

  E   E  E   E  E   E  E   E      E   E   E   E   E   E   E   E     E   E  E   E  E   E  E   E   
------------------------------|----------------------------------|------------------------------|
------------------------------|----------------------------------|------------------------------|
------------------------------|----------------------------------|------------------------------|
------------------------------|----------------------------------|------------------------------|
--9------9------9------9------|------14------14------14S--9------|--9------9------9------9------|
-----10-----10-----10-----10--|--12------12------12----------10--|-----10-----10-----10-----10--|

  E  E  E  E  E  E  E   E     E   E  E   E  E   E  E   E      E   E   E   E   E   E   E   E   
---------------------------|------------------------------|----------------------------------|
---------------------------|------------------------------|----------------------------------|
---------------------------|------------------------------|----------------------------------|
---------------------------|------------------------------|----------------------------------|
--7-----7-----7-----9------|--9------9------9------9------|------14------14------14S--9------|
-----8-----8-----8-----10--|-----10-----10-----10-----10--|--12------12------12----------10--|

  E   E  E   E  E   E  E   E     E  E  E  E  E  E  E   E     E   E  E   E  E   E  E   E   
------------------------------|---------------------------|------------------------------|
------------------------------|---------------------------|------------------------------|
------------------------------|---------------------------|------------------------------|
------------------------------|---------------------------|------------------------------|
--9------9------9------9------|--7-----7-----7-----9------|--9------9------9------9------|
-----10-----10-----10-----10--|-----8-----8-----8-----10--|-----10-----10-----10-----10--|





     PM PM PM PM PM PM      PM PM PM PM PM PM      PM PM PM PM PM PM    PM PM PM PM PM PM  
  E  S  S  S  S  S  S   E   S  S  S  S  S  S    E  S  S  S  S  S  S  E  S  S  S  S  S  S   
---------------------------------------------|--------------------------------------------|
---------------------------------------------|--------------------------------------------|
---------------------------------------------|--------------------------------------------|
--9--------------------12--------------------|--2--------------------5--------------------|
--7--7--7--7--7--7--7--10--10-10-10-10-10-10-|--0--0--0--0--0--0--0--3--3--3--3--3--3--3--|
---------------------------------------------|--------------------------------------------|

     PM PM    PM PM    PM PM    PM PM       PM PM    PM PM    PM PM    PM PM  
  E  S  S  E  S  S  E  S  S  E  S  S     E  S  S  E  S  S  E  S  S  E  S  S   
--------------------------------------|--------------------------------------|
--------------------------------------|--------------------------------------|
--------------------------------------|--------------------------------------|
--4--------4--------4--------4--------|--5--------5--------4--------4--------|
--2--2--2--2--2--2--2--2--2--2--2--2--|--3--3--3--3--3--3--2--2--2--2--2--2--|
--------------------------------------|--------------------------------------|

     PM PM PM PM PM PM      PM PM PM PM PM PM      PM PM PM PM PM PM    PM PM PM PM PM PM  
  E  S  S  S  S  S  S   E   S  S  S  S  S  S    E  S  S  S  S  S  S  E  S  S  S  S  S  S   
---------------------------------------------|--------------------------------------------|
---------------------------------------------|--------------------------------------------|
---------------------------------------------|--------------------------------------------|
--9--------------------12--------------------|--2--------------------5--------------------|
--7--7--7--7--7--7--7--10--10-10-10-10-10-10-|--0--0--0--0--0--0--0--3--3--3--3--3--3--3--|
---------------------------------------------|--------------------------------------------|

     PM PM    PM PM    PM PM    PM PM       PM PM    PM PM    PM PM    PM PM  
  E  S  S  E  S  S  E  S  S  E  S  S     E  S  S  E  S  S  E  S  S  E  S  S   
--------------------------------------|--------------------------------------|
--------------------------------------|--------------------------------------|
--------------------------------------|--------------------------------------|
--4--------4--------4--------4--------|--5--------5--------4--------4--------|
--2--2--2--2--2--2--2--2--2--2--2--2--|--3--3--3--3--3--3--2--2--2--2--2--2--|
--------------------------------------|--------------------------------------|

     PM PM PM PM PM PM      PM PM PM PM PM PM      PM PM PM PM PM PM    PM PM PM PM PM PM  
  E  S  S  S  S  S  S   E   S  S  S  S  S  S    E  S  S  S  S  S  S  E  S  S  S  S  S  S   
---------------------------------------------|--------------------------------------------|
---------------------------------------------|--------------------------------------------|
---------------------------------------------|--------------------------------------------|
--9--------------------12--------------------|--2--------------------5--------------------|
--7--7--7--7--7--7--7--10--10-10-10-10-10-10-|--0--0--0--0--0--0--0--3--3--3--3--3--3--3--|
---------------------------------------------|--------------------------------------------|

     PM PM    PM PM    PM PM    PM PM       PM PM    PM PM    PM PM    PM PM  
  E  S  S  E  S  S  E  S  S  E  S  S     E  S  S  E  S  S  E  S  S  E  S  S   
--------------------------------------|--------------------------------------|
--------------------------------------|--------------------------------------|
--------------------------------------|--------------------------------------|
--4--------4--------4--------4--------|--5--------5--------4--------4--------|
--2--2--2--2--2--2--2--2--2--2--2--2--|--3--3--3--3--3--3--2--2--2--2--2--2--|
--------------------------------------|--------------------------------------|

     PM PM PM PM PM PM      PM PM PM PM PM PM      PM PM PM PM PM PM    PM PM PM PM PM PM  
  E  S  S  S  S  S  S   E   S  S  S  S  S  S    E  S  S  S  S  S  S  E  S  S  S  S  S  S   
---------------------------------------------|--------------------------------------------|
---------------------------------------------|--------------------------------------------|
---------------------------------------------|--------------------------------------------|
--9--------------------12--------------------|--2--------------------5--------------------|
--7--7--7--7--7--7--7--10--10-10-10-10-10-10-|--0--0--0--0--0--0--0--3--3--3--3--3--3--3--|
---------------------------------------------|--------------------------------------------|

     PM PM    PM PM    PM PM    PM PM                                                              
  E  S  S  E  S  S  E  S  S  E  S  S      Q     Q    Q    Q        E   E   E   E   E   E   E   E   
--------------------------------------|------------------------|----------------------------------|
--------------------------------------|------------------------|----------------------------------|
--------------------------------------|--12----11----9----7----|----------------------------------|
--4--------4--------4--------4--------|--12----11----9----7----|----------------------------------|
--2--2--2--2--2--2--2--2--2--2--2--2--|--10-----9----7----5----|------14------14------14S--9------|
--------------------------------------|------------------------|--12------12------12----------10--|

  E   E  E   E  E   E  E   E     E  E  E  E  E  E  E   E     E   E  E   E  E   E  E   E   
------------------------------|---------------------------|------------------------------|
------------------------------|---------------------------|------------------------------|
------------------------------|---------------------------|------------------------------|
------------------------------|---------------------------|------------------------------|
--9------9------9------9------|--7-----7-----7-----9------|--9------9------9------9------|
-----10-----10-----10-----10--|-----8-----8-----8-----10--|-----10-----10-----10-----10--|

   E   E   E   E   E   E   E   E     E   E  E   E  E   E  E   E     E  E  E  E  E  E  E   E   
----------------------------------|------------------------------|---------------------------|
----------------------------------|------------------------------|---------------------------|
----------------------------------|------------------------------|---------------------------|
----------------------------------|------------------------------|---------------------------|
------14------14------14S--9------|--9------9------9------9------|--7-----7-----7-----9------|
--12------12------12----------10--|-----10-----10-----10-----10--|-----8-----8-----8-----10--|

  E   E  E   E  E   E  E   E      E   E   E   E   E   E   E   E     E   E  E   E  E   E  E   E   
------------------------------|----------------------------------|------------------------------|
------------------------------|----------------------------------|------------------------------|
------------------------------|----------------------------------|------------------------------|
------------------------------|----------------------------------|------------------------------|
--9------9------9------9------|------14------14------14S--9------|--9------9------9------9------|
-----10-----10-----10-----10--|--12------12------12----------10--|-----10-----10-----10-----10--|

  E  E  E  E  E  E  E   E     E   E  E   E  E   E  E   E      E   E   E   E   E   E   E   E   
---------------------------|------------------------------|----------------------------------|
---------------------------|------------------------------|----------------------------------|
---------------------------|------------------------------|----------------------------------|
---------------------------|------------------------------|----------------------------------|
--7-----7-----7-----9------|--9------9------9------9------|------14------14------14S--9------|
-----8-----8-----8-----10--|-----10-----10-----10-----10--|--12------12------12----------10--|

  E   E  E   E  E   E  E   E     E  E  E  E  E  E  E   E     E   E  E   E  E   E  E   E   
------------------------------|---------------------------|------------------------------|
------------------------------|---------------------------|------------------------------|
------------------------------|---------------------------|------------------------------|
------------------------------|---------------------------|------------------------------|
--9------9------9------9------|--7-----7-----7-----9------|--9------9------9------9------|
-----10-----10-----10-----10--|-----8-----8-----8-----10--|-----10-----10-----10-----10--|

   |-----3-----|     |-----3----|        |-----3-----|     |--3-|          
   Q     Q     Q     Q     Q    Q        Q     Q     Q     Q    H          
--10---------------------------------|------------------------------------|
--------12----10----12----10----8----|------------------------------------|
-------------------------------------|--14----12--------------------------|
-------------------------------------|--------------14----12----L\--------|
-------------------------------------|------------------------------------|
-------------------------------------|------------------------------------|

    |-----3-----|     |-----3-----|                           
    Q     Q     Q     Q     Q     Q        W                  
---------------------------------------|---------------------|
---------------------------------------|--20~----------------|
---------------------------------17----|---------------------|
--/12----14----12----14----17----------|---------------------|
---------------------------------------|---------------------|
---------------------------------------|---------------------|

   |----3----|   |----3----|   |----3----|   |----3----|   
   E    E    E   E    E    E   E    E    E   E    E    E   
--17p--15p--12--19p--15p--12--17p--15p--12--19p--15p--12--|
----------------------------------------------------------|
----------------------------------------------------------|
----------------------------------------------------------|
----------------------------------------------------------|
----------------------------------------------------------|

   |----3----|   |----3----|   |----3----|   |----3----|   
   E    E    E   E    E    E   E    E    E   E    E    E   
--17p--15p--12--19p--15p--12--17p--15p--12--19p--15p--12--|
----------------------------------------------------------|
----------------------------------------------------------|
----------------------------------------------------------|
----------------------------------------------------------|
----------------------------------------------------------|

   |-----3-----|     |-----3-----|     
   Q     Q     Q     Q     Q     Q        S  S  S  S  S  S  S  S  S  S  S  S  S  S  S  S  
--17----15----17----19----17----19----|--22-22-22-22-22-22-22-22-22-22-22-22-22-22-22-22-|
--------------------------------------|--------------------------------------------------|
--------------------------------------|--------------------------------------------------|
--------------------------------------|--------------------------------------------------|
--------------------------------------|--------------------------------------------------|
--------------------------------------|--------------------------------------------------|

   E   E   E   E   E   E   E   E      E   E   E   E   E   E   E   E   
----------------------------------|----------------------------------|
--15------15------15------15------|--14------14------14------14------|
------16------16------16------16--|------14------14------14------14--|
----------------------------------|----------------------------------|
----------------------------------|----------------------------------|
----------------------------------|----------------------------------|

   E   E   E   E   E   E   E   E      E   E   E   E   E   E   E   E   
----------------------------------|----------------------------------|
--15------15------15------15------|--17------17------17------17------|
------16------16------16------16--|------16------16------16------16--|
----------------------------------|----------------------------------|
----------------------------------|----------------------------------|
----------------------------------|----------------------------------|

   E   E   E   E   E   E   E   E      E   E   E   E   E   E   E   E   
----------------------------------|----------------------------------|
--15------15------15------15------|--14------14------14------14------|
------16------16------16------16--|------14------14------14------14--|
----------------------------------|----------------------------------|
----------------------------------|----------------------------------|
----------------------------------|----------------------------------|

   E   E   E   E   E   E   E   E      E   E   E   E   E   E   E   E   
----------------------------------|----------------------------------|
--15------15------15------15------|--17------17------17------17------|
------16------16------16------16--|------16------16------16------16--|
----------------------------------|----------------------------------|
----------------------------------|----------------------------------|
----------------------------------|----------------------------------|

   E   E   E   E   E   E   E   E      E   E   E   E   E   E   E   E   
----------------------------------|----------------------------------|
--15------15------15------15------|--14------14------14------14------|
------16------16------16------16--|------14------14------14------14--|
----------------------------------|----------------------------------|
----------------------------------|----------------------------------|
----------------------------------|----------------------------------|

   E   E   E   E   E   E   E   E      E   E   E   E   E   E   E   E   
----------------------------------|----------------------------------|
--15------15------15------15------|--17------17------17------17------|
------16------16------16------16--|------16------16------16------16--|
----------------------------------|----------------------------------|
----------------------------------|----------------------------------|
----------------------------------|----------------------------------|

                                     PM        PM           PM   PM   PM   PM    
   E   E   E   E   E   E   E   E     Q    Q    Q    Q       Q    Q    Q    Q     
----------------------------------|----------------------|----------------------|
--15------15------15------15------|----------------------|----------------------|
------16------16------16------16--|----------------------|----------------------|
----------------------------------|----------------------|----------------------|
----------------------------------|--2---------2---------|--2----2----2----2----|
----------------------------------|--0---------0---------|--0----0----0----0----|

   E   E   E   E   E   E  E   E     E   E  E   E  E   E  E   E     E  E  E  E  E  E  E   E   
---------------------------------|------------------------------|---------------------------|
---------------------------------|------------------------------|---------------------------|
---------------------------------|------------------------------|---------------------------|
---------------------------------|------------------------------|---------------------------|
------14------14------14--9------|--9------9------9------9------|--7-----7-----7-----9------|
--12------12------12---------10--|-----10-----10-----10-----10--|-----8-----8-----8-----10--|

  E   E  E   E  E   E  E   E      E   E   E   E   E   E  E   E     E   E  E   E  E   E  E   E   
------------------------------|---------------------------------|------------------------------|
------------------------------|---------------------------------|------------------------------|
------------------------------|---------------------------------|------------------------------|
------------------------------|---------------------------------|------------------------------|
--9------9------9------9------|------14------14------14--9------|--9------9------9------9------|
-----10-----10-----10-----10--|--12------12------12---------10--|-----10-----10-----10-----10--|

  E  E  E  E  E  E  E   E     E   E  E   E  E   E  E   E      E   E   E   E   E   E  E   E   
---------------------------|------------------------------|---------------------------------|
---------------------------|------------------------------|---------------------------------|
---------------------------|------------------------------|---------------------------------|
---------------------------|------------------------------|---------------------------------|
--7-----7-----7-----9------|--9------9------9------9------|------14------14------14--9------|
-----8-----8-----8-----10--|-----10-----10-----10-----10--|--12------12------12---------10--|

  E   E  E   E  E   E  E   E     E  E  E  E  E  E  E   E     E   E  E   E  E   E  E   E   
------------------------------|---------------------------|------------------------------|
------------------------------|---------------------------|------------------------------|
------------------------------|---------------------------|------------------------------|
------------------------------|---------------------------|------------------------------|
--9------9------9------9------|--7-----7-----7-----9------|--9------9------9------9------|
-----10-----10-----10-----10--|-----8-----8-----8-----10--|-----10-----10-----10-----10--|

   E   E   E   E   E   E  E   E     E   E  E   E  E   E  E   E     E  E  E  E  E  E  E   E   
---------------------------------|------------------------------|---------------------------|
---------------------------------|------------------------------|---------------------------|
---------------------------------|------------------------------|---------------------------|
---------------------------------|------------------------------|---------------------------|
------14------14------14--9------|--9------9------9------9------|--7-----7-----7-----9------|
--12------12------12---------10--|-----10-----10-----10-----10--|-----8-----8-----8-----10--|

  E   E  E   E  E   E  E   E      E   E   E   E   E   E   E   E   
------------------------------|----------------------------------|
------------------------------|--17------17------17------17------|
------------------------------|------16------16------16------16--|
------------------------------|----------------------------------|
--9------9------9------9------|----------------------------------|
-----10-----10-----10-----10--|----------------------------------|
   E   E   E   E   E   E   E   E      E   E   E   E   E   E   E   E   
----------------------------------|----------------------------------|
--15------15------15------15------|--14------14------14------14------|
------16------16------16------16--|------14------14------14------14--|
----------------------------------|----------------------------------|
----------------------------------|----------------------------------|
----------------------------------|----------------------------------|

                                     PM PM                 
   E   E   E   E   E   E   E   E     E  Q    E  H          
----------------------------------|----------------------||
--15------15------15------15------|----------------------||
------16------16------16------16--|----------------------||
----------------------------------|--2--2----------------||
----------------------------------|--2--2----------------||
----------------------------------|--0--0----------------||

Duration Legend
---------------
W - whole
H - half
Q - quarter
E - 8th
S - 16th
T - 32nd
X - 64th
. - note dotted
|-n-|  - n-tuplets

Tablature Legend
----------------
L - tied note
x - dead note
g - grace note
(n) - ghost note
> - accentuded note
NH - natural harmonic
AH - artificial harmonic
TH - tapped harmonic
SH - semi harmonic
PH - pitch harmonic
h - hammer on
p - pull off
b - bend
br - bendRelease
pb - preBend
pbr - preBendRelease
brb - bendReleaseBend
\n/ - tremolo bar dip
\n - tremolo bar dive
-/n - tremolo bar Release up
/n\ - tremolo bar inverted dip
/n - tremolo bar return
-\n - tremolo bar Release down
S - shift slide
s - legato slide
/ -  slide into from below or out of upwards
\ -  slide into from above or out of downwards
~ - vibrato
W - wide vibrato
tr - trill
TP - tremolo picking
T - tapping
S - slap
P - pop
< - fade in
^ - brush up
v - brush down
Suggest correction
Creating personal tab
Creating personal tab
You can edit any tab online and save it as your Personal.

You can edit, replace or remove any tab part or add personal notes – all changes will be seen only by you.

Personal tabs can be accessed anytime from any device, even offline.
Learn more »
Give kudos to tab author, rate the tab!
1 2 3 4 5
comments
print report bad tab
1 comment total.
0 reply
ruletheneck 324 Apr 11, 2010 06:24 PM

nice tab! AND you got some of the notes that i missed in mine :D

guest
You may want to rate the tab now too:
select rating
Wanna post a correction for this tab? Suggest correction