Oops, an error
Loading. Please wait.

No Regrets bass

3,450 views 3 this week
no commentswrite comment
1 2 3 4 5
1 last vote to show rating
add to favorites
×
Save as Personal and add changes to this tab that will be seen only by you. Learn more ›
×
You can save this tab as Personal to edit and correct it or add notes. All changes will be seen only by you. Learn more »
launch autoscroll
font size
0
reset
guitar tuner
backing track
0:00
0:00
edit
Autoscroll
slow
fast
+/-
esc
set tempo
stop
Author
Song: No Regrets
Band: Authority Zero
Album: 12:34
Tabbed By: Punker 96

Standard Tuning: E A D G

I recently tabbed out the guitar for this song and figured I'd work 
out the bass as well. Don't panic though, I've been playing bass for
as long as I've been playing guitar, so I know my stuff. Enjoy!


Intro

G|--------------------------------------------|
D|------12---------12---------12---------12---|
A|-12h14--14--12h14--14--12h14--14--12h14--14-|
E|--------------------------------------------|


G|--------------------------------------------|
D|------12---------12---------12---------12---|
A|-12h14--14--12h14--14--12h14--14--12h14--14-|
E|--------------------------------------------|


G|----------|
D|----------|
A|-----666/-|
E|-330------|


G|--------------------------------------------|
D|------12---------12---------12---------12---|
A|-12h14--14--12h14--14--12h14--14--12h14--14-|
E|--------------------------------------------|


G|--------------------------------------------|
D|------12---------12---------12---------12---|
A|-12h14--14--12h14--14--12h14--14--12h14--14-|
E|--------------------------------------------|


G|---------|
D|---------|
A|-----660-|
E|-330-----|


Verse 1

G|--------------------------------------------|
D|------12---------12---------12---------12---|
A|-12h14--14--12h14--14--12h14--14--12h14--14-|
E|--------------------------------------------|


G|--------------------------------------------|
D|------12---------12---------12---------12---|
A|-12h14--14--12h14--14--12h14--14--12h14--14-|
E|--------------------------------------------|


G|--------------------------------------------|
D|------12---------12---------12---------12---|
A|-12h14--14--12h14--14--12h14--14--12h14--14-|
E|--------------------------------------------|


G|---------|
D|---------|
A|-----660-|
E|-330-----|


G|--------------------------------------------|
D|------12---------12---------12---------12---|
A|-12h14--14--12h14--14--12h14--14--12h14--14-|
E|--------------------------------------------|


G|--------------------------------------------|
D|------12---------12---------12---------12---|
A|-12h14--14--12h14--14--12h14--14--12h14--14-|
E|--------------------------------------------|


G|--------------------------------------------|
D|------12---------12---------12---------12---|
A|-12h14--14--12h14--14--12h14--14--12h14--14-|
E|--------------------------------------------|


G|---------|
D|---------|
A|-----660-|
E|-330-----|


Chorus

G|-------------------------------------------------------------------|
D|-------------------------------------------------------------------|
A|------------------5555555555555555---------------------------------|
E|-3333333333333333------------------5555555555555555-777777777-7-77-|


G|---------------------------------------------------------------------|
D|---------------------------------------------------------------------|
A|------------------5555555555555555-----------------------------------|
E|-3333333333333333------------------5555555555555555-7777777777777777-|


Verse 2

G|--------------------------------------------|
D|------12---------12---------12---------12---|
A|-12h14--14--12h14--14--12h14--14--12h14--14-|
E|--------------------------------------------|


G|--------------------------------------------|
D|------12---------12---------12---------12---|
A|-12h14--14--12h14--14--12h14--14--12h14--14-|
E|--------------------------------------------|


G|--------------------------------------------|
D|------12---------12---------12---------12---|
A|-12h14--14--12h14--14--12h14--14--12h14--14-|
E|--------------------------------------------|


G|---------|
D|---------|
A|-----660-|
E|-330-----|


G|--------------------------------------------|
D|------12---------12---------12---------12---|
A|-12h14--14--12h14--14--12h14--14--12h14--14-|
E|--------------------------------------------|


G|--------------------------------------------|
D|------12---------12---------12---------12---|
A|-12h14--14--12h14--14--12h14--14--12h14--14-|
E|--------------------------------------------|


G|--------------------------------------------|
D|------12---------12---------12---------12---|
A|-12h14--14--12h14--14--12h14--14--12h14--14-|
E|--------------------------------------------|


G|---------|
D|---------|
A|-----660-|
E|-330-----|


G|--------------------------------------------|
D|------12---------12---------12---------12---|
A|-12h14--14--12h14--14--12h14--14--12h14--14-|
E|--------------------------------------------|


G|--------------------------------------------|
D|------12---------12---------12---------12---|
A|-12h14--14--12h14--14--12h14--14--12h14--14-|
E|--------------------------------------------|


G|--------------------------------------------|
D|------12---------12---------12---------12---|
A|-12h14--14--12h14--14--12h14--14--12h14--14-|
E|--------------------------------------------|


G|---------|
D|---------|
A|-----660-|
E|-330-----|


Chorus

G|-------------------------------------------------------------------|
D|-------------------------------------------------------------------|
A|------------------5555555555555555---------------------------------|
E|-3333333333333333------------------5555555555555555-777777777-7-77-|


G|---------------------------------------------------------------------|
D|---------------------------------------------------------------------|
A|------------------5555555555555555-----------------------------------|
E|-3333333333333333------------------5555555555555555-7777777777777777-|


G|-------------------------------------------------------------------|
D|-------------------------------------------------------------------|
A|------------------5555555555555555---------------------------------|
E|-3333333333333333------------------5555555555555555-777777777-7-77-|


G|---------------------------------------------------------------------|
D|---------------------------------------------------------------------|
A|------------------5555555555555555-----------------------------------|
E|-3333333333333333------------------5555555555555555-7777777777777777-|


Bridge

G|-----------------------|
D|-----------------------|
A|------7-9-7----7-------|
E|-7-10-------10---10-7~-|


G|------------------------|
D|------------------------|
A|------7-9-7-9\12-9-7-9~-|
E|-7-10-------------------|


G|---------------------------|
D|-7\9/7---------------------|
A|-------9-7---------7-------|
E|-----------10-7-10---10-7~-|


G|-----------------------|
D|-----------------------|
A|--------7------7~------|
E|-7-10-7---10-7-------7-|


Chorus

G|-------------------------------------------------------------------|
D|-------------------------------------------------------------------|
A|-------------------------------------------------------------------|
E|-----------------------------------5555555555555555-777777777-7-77-|


G|---------------------------------------------------------------------|
D|---------------------------------------------------------------------|
A|------------------5555555555555555-----------------------------------|
E|-3333333333333333------------------5555555555555555-7777777777777777-|


G|-------------------------------------------------------------------|
D|-------------------------------------------------------------------|
A|------------------5555555555555555---------------------------------|
E|-3333333333333333------------------5555555555555555-777777777-7-77-|


G|---------------------------------------------------------------------|
D|---------------------------------------------------------------------|
A|------------------5555555555555555-----------------------------------|
E|-3333333333333333------------------5555555555555555-7777777777777777-|


Outro


G|--------------------------------------------|
D|------12---------12---------12---------12---|
A|-12h14--14--12h14--14--12h14--14--12h14--14-|
E|--------------------------------------------|


G|--------------------------------------------|
D|------12---------12---------12---------12---|
A|-12h14--14--12h14--14--12h14--14--12h14--14-|
E|--------------------------------------------|


G|--------------------------------------------|
D|------12---------12---------12---------12---|
A|-12h14--14--12h14--14--12h14--14--12h14--14-|
E|--------------------------------------------|


G|----------|
D|----------|
A|-----666/-|
E|-330------|




Tab Legend

~  = Ring Out

\  = Slide Up

/  = Slide Down

h  = Hammer On


            
            
Suggest correction
Creating personal tab
Creating personal tab
You can edit any tab online and save it as your Personal.

You can edit, replace or remove any tab part or add personal notes – all changes will be seen only by you.

Personal tabs can be accessed anytime from any device, even offline.
Learn more »
Give kudos to tab author, rate the tab!
1 2 3 4 5
comments
print report bad tab
guest
You may want to rate the tab now too:
select rating
Wanna post a correction for this tab? Suggest correction