Oops, an error
Loading. Please wait.

Solitude Bass Tab

version 2
version 2

Whole song

Interactive

95 views 1 this week
no commentswrite comment
1 2 3 4 5
3 more votes to show rating
add to favorites
launch autoscroll
font size
0
reset
guitar tuner
Autoscroll
slow
fast
+/-
esc
set tempo
stop
Help us to improve Ultimate-Guitar.com Take our survey!
×
-------------------------------------------------------------------------------
                             Solitude - Authority Zero
-------------------------------------------------------------------------------
Tabbed by: 
E-mail: 

Tuning:EADG

Intro/verse
G|--------------------------------------------------------|
D|-------7-5-4------8-6-5------7-5-4----------------------|
A|-----5------5---6------6---5-------5-- 5--65656565------|
E|--------------------------------------------------------|

Chorus  (accompanied by loads of jumping)
G|--------------------------------------------------------|
D|------------------------7-5-4----10-9-7-9-7-9-7---------|
A|-------------7777-7--55---------------------------------|
E|-----5555-5---------------------------------------------|

Solo breakdown
G|--------------------------------------------------------|
D|--------------------------------------------------------|
A|-----5-55-5--6-66--5-55-5--666666-----------------------|
E|--------------------------------------------------------|

Those are all the riffs, you should be able to figure out where they go.
Suggest correction
Give kudos to tab author, rate the tab!
1 2 3 4 5
comments
print report bad tab
guest
You may want to rate the tab now too:
select rating
Wanna post a correction for this tab? Suggest correction