Oops, an error
Loading. Please wait.

Brainwasher tab

by Autolux
124 views 1 this week
no commentswrite comment
1 2 3 4 5
3 more votes to show rating
add to favorites
×
Save as Personal and add changes to this tab that will be seen only by you. Learn more ›
×
You can save this tab as Personal to edit and correct it or add notes. All changes will be seen only by you. Learn more »
launch autoscroll
font size
0
reset
how to read this tab
guitar tuner
edit
Autoscroll
slow
fast
+/-
esc
set tempo
stop
Autolux
"Brainwasher"

Guitars and Keyboards tuned down a half-step.


[Intro]

Keyboards and Guitar and rest.


[Verse]

   Keyboard
eb|----------------|----------------|----------------|----------------|
Bb|----------------|----------------|----------------|----------------|
Gb|----------------|----------------|----------------|----------------|
Db|----------------|----------------|----------------|----------------|
Ab|----------------|----------------|----------------|----------------|
Eb|----------------|----------------|----------------|----------------|
  |Guitar               Hit various dead notes with modulation effects.
eb|----------------|----------------|----------------|----------------|
Bb|----------------|----------------|----------------|----------------|
Gb|----------------|----------------|----------------|----------------|
Db|----------------|----------------|----------------|----------------|
Ab|----------------|----------------|----------------|----------------|
Eb|----------------|----------------|----------------|----------------|


eb|----------------|----------------|----------------|----------------|
Bb|----------------|----------------|----------------|----------------|
Gb|----------------|----------------|----------------|----------------|
Db|----------------|----------------|----------------|----------------|
Ab|----------------|----------------|----------------|----------------|
Eb|----------------|----------------|----------------|----------------|
  |
eb|----------------|----------------|----------------|----------------|
Bb|----------------|----------------|----------------|----------------|
Gb|----------------|----------------|----------------|----------------|
Db|----------------|----------------|----------------|----------------|
Ab|----------------|----------------|----------------|----------------|
Eb|----------------|----------------|----------------|----------------|


eb|----------------|----------------|----------------|------5-7-------|
Bb|----------------|----------------|----------------|----------------|
Gb|----------------|----------------|----------------|----------------|
Db|----------------|----------------|----------------|---------/7/7/7-|
Ab|----------------|----------------|----------------|----------------|
Eb|----------------|---------/5/5/5-|----------------|----------------|
  |
eb|----------------|----------------|------0----0----|------0----0----|
Bb|----------------|----------------|--------6-----6-|--------6-------|
Gb|----------------|----------------|----------------|----------------|
Db|----------------|----------------|----------------|--------------5/|
Ab|----------------|----------------|----------------|----------------|
Eb|----------------|----------------|----------------|----------------|


[Chorus]

eb|----------------|----------------|----------------|----------------|
Bb|----------------|----------------|----------------|----------------|
Gb|----------------|----------------|----------------|----------------|
Db|----------------|----------------|----------------|----------------|
Ab|----------------|----------------|----------------|----------------|
Eb|----------------|----------------|----------------|----------------|
  |
eb|----------------|----------------|----------------|----------------|
Bb|----------------|----------------|----------------|----------------|
Gb|----------------|----------------|----------------|----------------|
Db|7---7-----------|--------------5/|7---7-----------|----------------|
Ab|----------------|----------------|----------------|----------------|
Eb|----------------|----------------|----------------|----------------|


   Keyboards
eb|----------------|----------------|----------------|----------------|
Bb|----------------|----------------|----------------|----------------|
Gb|----------------|----------------|----------------|----------------|
Db|----------------|----------------|----------------|----------------|
Ab|----------------|----------------|----------------|----------------|
Eb|----------------|----------------|----------------|----------------|
  |Guitar 2 enters
eb|----------------|----------------|----------------|----------------|
Bb|10b11-----------|----------------|----------------|----------------|
Gb|------pb11r10---|9b10------------|----------------|----------------|
Db|----------------|------pb11r10---|7b8-------------|----------------|
Ab|----------------|----------------|------pb9r8~----|----------------|
Eb|----------------|----------------|----------------|----------------|
  |Guitar 1 does slight bends on the fretted Eb's
eb|--0-------------|--0-------------|--0-------------|--0-------------|
Bb|6-------5b------|6-------5b------|6-------5b------|6---------------|
Gb|----------------|----------------|----------------|------7b8r7b8r7-|
Db|----------------|----------------|----------------|----------------|
Ab|----------------|----------------|----------------|----------------|
Eb|----------------|----------------|----------------|----------------|
  

eb|------------5-7-------------5---|------------5-7-------------5---|
Bb|--------------------------------|--------------------------------|
Gb|--------7-9-------------7-9-----|--------7-9-------------7-9-----|
Db|----7-9-------------7-9---------|----7-9-------------7-9---------|
Ab|5-7-----------------------------|5-7-----------------------------|
Eb|--------------------------------|--------------------------------|
  |
eb|--------------------------------|--------------------------------|
Bb|10b11---------------------------|--------------------------------|
Gb|--------------pb11r10-----------|9b10----------------------------|
Db|--------------------------------|--------------pb11r10-----------|
Ab|--------------------------------|--------------------------------|
Eb|--------------------------------|--------------------------------|
  |
eb|----0---------------------------|----0---------------------------|
Bb|6---------------5b--------------|6---------------5b--------------|
Gb|--------------------------------|--------------------------------|
Db|--------------------------------|--------------------------------|
Ab|--------------------------------|--------------------------------|
Eb|--------------------------------|--------------------------------|


eb|----------------|----------------|
Bb|----------------|----------------|
Gb|----------------|----------------|
Db|----------------|----------------|
Ab|----------------|----------------|
Eb|----------------|----------------|
  |
eb|----------------|----------------|
Bb|----------------|----------------|
Gb|----------------|----------------|
Db|7b8-------------|----------------|
Ab|------pb9r8~----|----------------|
Eb|----------------|----------------|
  |
eb|--0-------------|--0-------------|
Bb|6-------5b------|6---------------|
Gb|----------------|------7b8r7b8r7-|
Db|----------------|----------------|
Ab|----------------|----------------|
Eb|----------------|----------------|


[Verse]
  
   Keyboards
eb|----------------|----------------|----------------|----------------|
Bb|----------------|----------------|----------------|----------------|
Gb|----------------|----------------|----------------|----------------|
Db|----------------|----------------|----------------|----------------|
Ab|----------------|----------------|----------------|----------------|
Eb|----------------|----------------|----------------|----------------|
  |                                  Volume swells while gradually
  |Guitar                            bending and releasing note
eb|----------------|----------------|----------------|----------------|
Bb|10b11-----------|----------------|----------------|----------------|
Gb|----------------|----------------|pb7r6-----------|----------------|
Db|----------------|----------------|----------------|----------------|
Ab|----------------|----------------|----------------|----------------|
Eb|----------------|----------------|----------------|----------------|


eb|----------------|----------------|----------------|----------15----|
Bb|----------------|----------------|----------------|------------17--|
Gb|----------------|----------------|----------------|--------------16|
Db|----------------|----------------|----------------|----------------|
Ab|----------------|----------------|----------------|----------------|
Eb|----------------|----------------|----------------|----------------|
  |
eb|----------------|----------------|----------------|----------------|
Bb|----------------|----------------|----------------|----------------|
Gb|----------------|----------------|----------------|----------------|
Db|----------------|----------------|----------------|----------------|
Ab|----------------|----------------|----------------|----------------|
Eb|----------------|----------------|----------------|----------------|


[Chorus]

eb|----------------|----------------|----------------|----------------|
Bb|----------------|------------12--|----------------|------------12--|
Gb|14--------------|12--------------|12--------------|----------------|
Db|----------------|----------------|----------------|----------------|
Ab|----------------|----------------|----------------|----------------|
Eb|----------------|----------------|----------------|----------------|
  |
eb|----------------|----------------|----------------|----------------|
Bb|----------------|----------------|----------------|----------------|
Gb|----------------|----------------|----------------|----------------|
Db|7---7------/19-/|19-/19-/19-/19--|----7------/19-/|19-/19-/19------|
Ab|----------------|----------------|----------------|----------------|
Eb|----------------|----------------|----------------|----------------|


eb|12--------------|----------------|----------------|----------------|
Bb|----------------|----------------|----------------|----------------|
Gb|----------------|----------------|----------------|----------------|
Db|----------------|----------------|----------------|----------------|
Ab|----------------|----------------|----------------|----------------|
Eb|----------------|----------------|----------------|----------------|
  |Gradually bend and release while holding note
eb|----------------|----------------|----------------|----------------|
Bb|----------------|----------------|----------------|----------------|
Gb|10b11-----------|(10)------------|(10)------------|(10)------------|
Db|----------------|----------------|----------------|----------------|
Ab|----------------|----------------|----------------|----------------|
Eb|----------------|----------------|----------------|----------------|
  

eb|--------10----10|12------10----10|12------10----10|12------10----10|
Bb|-----------12---|-----------12---|-----------12---|-----------12---|
Gb|9---------------|----------------|----------------|----------------|
Db|----------------|----------------|----------------|----------------|
Ab|----------------|----------------|----------------|----------------|
Eb|----------------|----------------|----------------|----------------|
  |                                                   Guitar fades out
eb|----------------|----------------|----------------|----------------|
Bb|----------------|----------------|----------------|----------------|
Gb|----------------|----------------|----------------|----------------|
Db|(10)------------|(10)------------|(10)------------|(10)------------|
Ab|----------------|----------------|----------------|----------------|
Eb|----------------|----------------|----------------|----------------|


[Outro]

  Keyboards
eb|12------10----10|12------10----10|12------10----10|12------10----10|
Bb|-----------12---|-----------12---|-----------12---|-----------12---|
Gb|----------------|----------------|----------------|----------------|
Db|----------------|----------------|----------------|----------------|
Ab|----------------|----------------|----------------|----------------|
Eb|----------------|----------------|----------------|----------------|

eb|12------10----10|12------10----10|12------10----10|12------10----10|
Bb|-----------12---|-----------12---|-----------12---|-----------12---|
Gb|----------------|----------------|----------------|----------------|
Db|----------------|----------------|----------------|----------------|
Ab|----------------|----------------|----------------|----------------|
Eb|----------------|----------------|----------------|----------------|

eb|12------10----10|12------10----10|12------10----10|12------10----10|
Bb|-----------12---|-----------12---|-----------12---|-----------12---|
Gb|----------------|----------------|----------------|----------------|
Db|----------------|----------------|----------------|----------------|
Ab|----------------|----------------|----------------|----------------|
Eb|----------------|----------------|----------------|----------------|

eb|12------10----10|12------10----10|12------10----10|----------------|
Bb|-----------12---|-----------12---|-----------12---|----------------|
Gb|----------------|----------------|----------------|----------------|
Db|----------------|----------------|----------------|----------------|
Ab|----------------|----------------|----------------|----------------|
Eb|----------------|----------------|----------------|----------------|


[End]

Guitar re-enters gradually releasing the bre-bend.
eb|----------------|----------------|----------------|----------------|
Bb|----------------|----------------|----------------|----------------|
Gb|pb11r10---------|(10)------------|(10)------------|(10)------------|
Db|----------------|----------------|----------------|----------------|
Ab|----------------|----------------|----------------|----------------|
Eb|----------------|----------------|----------------|----------------|


************************************

| r  Release
| b  Bend
| pb Pre-Bend
| X  Dead note
| () Ghost note
| /  Slide up
| \  Slide down
| ~  Vibrato

************************************

            
            
Suggest correction
Creating personal tab
Creating personal tab
You can edit any tab online and save it as your Personal.

You can edit, replace or remove any tab part or add personal notes – all changes will be seen only by you.

Personal tabs can be accessed anytime from any device, even offline.
Learn more »
Give kudos to tab author, rate the tab!
1 2 3 4 5
comments
print report bad tab
guest
You may want to rate the tab now too:
select rating
Wanna post a correction for this tab? Suggest correction