Oops, an error
Loading. Please wait.

Future Perfect Tab

19 views 1 this week
no commentswrite comment
1 2 3 4 5
3 more votes to show rating
add to favorites
launch autoscroll
font size
0
reset
how to read this tab
guitar tuner
Autoscroll
slow
fast
+/-
esc
set tempo
stop
Help us to improve Ultimate-Guitar.com Take our survey!
×
Author
Difficulty
Tuning
intermediate
D# G# C# F# A# D#
About this tab version
First version (2001) of Future Perfect/Change My Head. Was this info helpful? Yes No
Autolux
"Future Perfect"
Demonstration EP
Tabbed by: jrfox92
tuned 1/2 step down (Eb, Ab, Db, Gb, Bb, db)

Intro/Verse
Bass (Distorted)                                                                                  0:18
Gb|-------------------------------------------------|-------------------------------------------------|
Db|-------------------------------------------------|-------------------------------------------------|
Ab|-------------6-----6-----------------7-----7-----|-------------6-----6-----------------7-----7-----|
Eb|-2----(2)---/6-----6----/12----12\---5-----5-----|-2-----2----/6-----6----/12----12\---5-----5-----|

Organ
db|----11----11-------11----12-11-------11----------|----11----11-------11----12-11-------11----------|
Bb|----------------11----14-------14-12----14-12----|----------------11----14-------14-12----14-12----|
Gb|-11----11----12-------------------------------12-|-11----11----12-------------------------------12-|
Db|-------------------------------------------------|-------------------------------------------------|
Ab|-------------------------------------------------|-------------------------------------------------|
Eb|-------------------------------------------------|-------------------------------------------------|


Bass (Distorted)                                                                                  0:36
Gb|-------------------------------------------------|-------------------------------------------------|
Db|-------------------------------------------------|-------------------------------------------------|
Ab|-------------6-----6-----------------7-----7-----|-------------6-----6-----------------7-----7-----|
Eb|-2----(2)---/6-----6----/12----12\---5-----5-----|-2-----2----/6-----6----/12----12\---5-----5-----|

Organ
db|----11----11-------11----12-11-------11----------|----11----11-------11----12-11-------11----------|
Bb|----------------11----14-------14-12----14-12----|----------------11----14-------14-12----14-12----|
Gb|-11----11----12-------------------------------12-|-11----11----12-------------------------------12-|
Db|-------------------------------------------------|-------------------------------------------------|
Ab|-------------------------------------------------|-------------------------------------------------|
Eb|-------------------------------------------------|-------------------------------------------------|

Piano (these are comparable guitar chords, the piano chords are difficult to decipher)
db|-------------------------------------------------|-------------------------------------------------|
Bb|-4-----4-----4-----4-----5-----5-----2-----2-----|-4-----4-----4-----4-----5-----5-----2-----2-----|
Gb|-4-----4-----3-----3-----4-----4-----2-----2-----|-4-----4-----3-----3-----4-----4-----2-----2-----|
Db|-4-----4-----1-----1-----2-----2-----2-----2-----|-4-----4-----1-----1-----2-----2-----2-----2-----|
Ab|-2-----2-----1-----1-----2-----2-----0-----0-----|-2-----2-----1-----1-----2-----2-----0-----0-----|
Eb|-2-----2-----------------------------0-----0-----|-2-----2-----------------------------0-----0-----|

Verse
Piano (as before, these are comparable guitar chords)                                              0:54
db|-------------------------------------------------|-------------------------------------------------|
Bb|-------------------------------------------------|-------------------------------------------------|
Gb|-4-----4-----4-----4-----1-----1-----7-----7-----|-4-----4-----4-----4-----1-----1-----7-----7-----|
Db|-4-----4-----5-----5-----2-----2-----7-----7-----|-4-----4-----5-----5-----2-----2-----7-----7-----|
Ab|-2-----2-----5-----5-----2-----2-----5-----5-----|-2-----2-----5-----5-----2-----2-----5-----5-----|
Eb|-2-----2-----3-----3-----0-----0-----5-----5-----|-2-----2-----3-----3-----0-----0-----5-----5-----|

Piano (underlying bass notes)
Gb|-------------------------------------------------|-------------------------------------------------|
Db|-------------------------------------------------|-------------------------------------------------|
Ab|-2--------2--------------------------------------|-2--------2--------------------------------------|
Eb|-------------3--------3--0--------0--5--------5--|-------------3--------3--0--------0--5--------5--|


Piano                                                                                             1:11
db|-------------------------------------------------|-------------------------------------------------|
Bb|-------------------------------------------------|-------------------------------------------------|
Gb|-4-----4-----4-----4-----1-----1-----7-----7-----|-4-----4-----4-----4-----1-----1-----7-----7-----|
Db|-4-----4-----5-----5-----2-----2-----7-----7-----|-4-----4-----5-----5-----2-----2-----7-----7-----|
Ab|-2-----2-----5-----5-----2-----2-----5-----5-----|-2-----2-----5-----5-----2-----2-----5-----5-----|
Eb|-2-----2-----3-----3-----0-----0-----5-----5-----|-2-----2-----3-----3-----0-----0-----5-----5-----|

Piano (underlying bass notes)
Gb|-------------------------------------------------|-------------------------------------------------|
Db|-------------------------------------------------|-------------------------------------------------|
Ab|-2-----2--0--------------------------------------|-2--------2--------------------------------------|
Eb|-------------3--------3--0--------0--5--------5--|-------------3--------3--0--------0--5--------5--|

Piano
db|-------------------------|
Bb|-------------------------|
Gb|-4-----4-----7-----7-----|
Db|-4-----4-----7-----7-----|
Ab|-2-----2-----5-----5-----|
Eb|-2-----2-----5-----5-----|

Piano (underlying bass notes)
Gb|-------------------------|
Db|-------------------------|
Ab|-2--------2--5-----------|
Eb|-------------------------|

Guitar or Synth (Radio Interference/Oscillating fuzz)
db|-------------------------|
Bb|-------------------------|
Gb|-------------------------|
Db|-12\-11-/12--------------|
Ab|-------------------------|
Eb|-------------------------|

Chorus
Piano                                                                                             1:34
db|-------------------------------------------------|-------------------------------------------------|
Bb|-3-----3-----0-----0-----7-----7-----12----12----|-3-----3-----0-----0-----7-----7-----12----12----|
Gb|-4-----4-----1-----1-----8-----8-----12----12----|-4-----4-----1-----1-----8-----8-----12----12----|
Db|-5-----5-----2-----2-----9-----9-----12----12----|-5-----5-----2-----2-----9-----9-----12----12----|
Ab|-5-----5-----2-----2-----9-----9-----10----10----|-5-----5-----2-----2-----9-----9-----10----10----|
Eb|-3-----3-----0-----0-----7-----7-----10----10----|-3-----3-----0-----0-----7-----7-----10----10----|

Piano (underlying bass notes)
Gb|-------------------------------------------------|-------------------------------------------------|
Db|-------------------------------------------------|-------------------------------------------------|
Ab|-------------------------------------------------|-------------------------------------------------|
Eb|-3--------3--0--------0--7--------7--10-------10-|-3--------3--0--------0--7--------7--10-------10-|

Piano                                                                                             1:57
db|-------------------------------------------------|-------------------------------------------------|
Bb|-3-----3-----0-----0-----7-----7-----12----12----|-3-----3-----0-----0-----7-----------------------|
Gb|-4-----4-----1-----1-----8-----8-----12----12----|-4-----4-----1-----1-----8-----------------------|
Db|-5-----5-----2-----2-----9-----9-----12----12----|-5-----5-----2-----2-----9-----------------------|
Ab|-5-----5-----2-----2-----9-----9-----10----10----|-5-----5-----2-----2-----9-----------------------|
Eb|-3-----3-----0-----0-----7-----7-----10----10----|-3-----3-----0-----0-----7-----------------------|

Piano (underlying bass notes)
Gb|-------------------------------------------------|-------------------------------------------------|
Db|-------------------------------------------------|-------------------------------------------------|
Ab|-------------------------------------------------|-------------------------------------------------|
Eb|-3--------3--0--------0--7--------7--10-------10-|-3--------3--0--------0--7-----------------------|

Verse
Piano                                                                                             2:14
db|-------------------------------------------------|-------------------------------------------------|
Bb|-------------------------------------------------|-------------------------------------------------|
Gb|-4-----4-----4-----4-----1-----1-----7-----7-----|-4-----4-----4-----4-----1-----1-----7-----7-----|
Db|-4-----4-----5-----5-----2-----2-----7-----7-----|-4-----4-----5-----5-----2-----2-----7-----7-----|
Ab|-2-----2-----5-----5-----2-----2-----5-----5-----|-2-----2-----5-----5-----2-----2-----5-----5-----|
Eb|-2-----2-----3-----3-----0-----0-----5-----5-----|-2-----2-----3-----3-----0-----0-----5-----5-----|

Piano (underlying bass notes)
Gb|-------------------------------------------------|-------------------------------------------------|
Db|-------------------------------------------------|-------------------------------------------------|
Ab|-2--------2--------------------------------------|-2--------2--------------------------------------|
Eb|-------------3--------3--0--------0--5--------5--|-------------3--------3--0--------0--5--------5--|

Guitar (Radio Interference/Oscillating fuzz/Feedback)
db|-<7>--------------------<7>----------------------|---------<7>-------------------------------------|
Bb|--------------------------x------------------/7--|-<7>---------------x-----------------------------|
Gb|---------------------------4~------------------x-|---------------------7b-r\5b7~-----r4------------|
Db|-------------------------------------------------|-------------------------------------------------|
Ab|-------------------------------------------------|-------------------------------------------------|
Eb|-------------------------------------------------|-------------------------------------------------|
                          (sweep)                                          (vibrato bar)

Piano                                                                                             2:33
db|-------------------------------------------------|-------------------------------------------------|
Bb|-------------------------------------------------|-------------------------------------------------|
Gb|-4-----4-----4-----4-----1-----1-----7-----7-----|-4-----4-----4-----4-----1-----1-----7-----7--7--|
Db|-4-----4-----5-----5-----2-----2-----7-----7-----|-4-----4-----5-----5-----2-----2-----7-----7--7--|
Ab|-2-----2-----5-----5-----2-----2-----5-----5-----|-2-----2-----5-----5-----2-----2-----5-----5--5--|
Eb|-2-----2-----3-----3-----0-----0-----5-----5-----|-2-----2-----3-----3-----0-----0-----5-----5--5--|

Piano (underlying bass notes)
Gb|-------------------------------------------------|-------------------------------------------------|
Db|-------------------------------------------------|-------------------------------------------------|
Ab|-2--------2--------------------------------------|-2--------2--------------------------------------|
Eb|-------------3--------3--0--------0--5--------5--|-------------3--------3--0--------0--5--------5--|

Guitar (Radio Interference/Oscillating fuzz/Feedback)
db|-------------------------------------------------|-------------------------------------------------|
Bb|-------------------------------------------------|-<7>b-------0b-----------------------------------|
Gb|-------------------------<7>b--------------------|-------------------------------------------------|
Db|-------------------------------------------------|-------------------------------------------------|
Ab|-5b----------------------------------------------|-------------------------------------------------|
Eb|-------------------------------------------------|-------------------------------------------------|
   (bends done with vibrato bar)

Piano                   2:38
db|-------------------------|
Bb|-------------------------|
Gb|-4-4-4-4-----7-7-7-7-----|
Db|-4-4-4-4-----7-7-7-7-----|
Ab|-2-2-2-2-----5-5-5-5-----|
Eb|-2-2-2-2-----5-5-5-5-----|


Chorus
Piano                                                                                             2:55
db|-------------------------------------------------|-------------------------------------------------|
Bb|-3-----3-----0-----0-----7-----7-----12----12----|-3-----3-----0-----0-----7-----7-----12----12----|
Gb|-4-----4-----1-----1-----8-----8-----12----12----|-4-----4-----1-----1-----8-----8-----12----12----|
Db|-5-----5-----2-----2-----9-----9-----12----12----|-5-----5-----2-----2-----9-----9-----12----12----|
Ab|-5-----5-----2-----2-----9-----9-----10----10----|-5-----5-----2-----2-----9-----9-----10----10----|
Eb|-3-----3-----0-----0-----7-----7-----10----10----|-3-----3-----0-----0-----7-----7-----10----10----|

Guitar (heavily distorted)
db|-------------------------------------------------|-------------------------------------------------|
Bb|-------------------------------------------------|-------------------------------------------------|
Gb|-------------------------------------------------|-------------------------------------------------|
Db|-5-----5-----2-----2-----9----(9)----12----12----|-5-----5-----2-----2-----9-----9-----12----12----|
Ab|-5-----5-----2-----2-----9----(9)----10----10----|-5-----5-----2-----2-----9-----9-----10----10----|
Eb|-3-----3-----0-----0-----7----(7)----10----10----|-3-----3-----0-----0-----7-----7-----10----10----|

Guitar (clean)
db|-------------------------------------------------|-------------------------------------------------|
Bb|-3-----3--3--0-----0-----7-----7-----12----12----|-3-----3--3--0-----0-----7-----7-----12----12-12-|
Gb|-4-----4--4--1-----1-----8-----8-----12----12----|-4-----4--4--1-----1-----8-----8-----12----12-12-|
Db|-5-----5--5--2-----2-----9-----9-----12----12----|-5-----5--5--2-----2-----9-----9-----12----12-12-|
Ab|-5-----5--5--2-----2-----9-----9-----10----10----|-5-----5--5--2-----2-----9-----9-----10----10-10-|
Eb|-3-----3--3--0-----0-----7-----7-----10----10----|-3-----3--3--0-----0-----7-----7-----10----10-10-|


Piano                                                                 3:09
db|-------------------------------------------------|---------------------|
Bb|-3-----3-----0-----0-----7-----7-----12----12----|-3-----3-----0-----0-|
Gb|-4-----4-----1-----1-----8-----8-----12----12----|-4-----4-----1-----1-|
Db|-5-----5-----2-----2-----9-----9-----12----12----|-5-----5-----2-----2-|
Ab|-5-----5-----2-----2-----9-----9-----10----10----|-5-----5-----2-----2-|
Eb|-3-----3-----0-----0-----7-----7-----10----10----|-3-----3-----0-----0-|

Guitar (heavily distorted)
db|-------------------------------------------------|---------------------|
Bb|-------------------------------------------------|---------------------|
Gb|-------------------------------------------------|---------------------|
Db|-5-----5-----2-----2-----9-----9-----12----12----|-5-----5-----2-----2-|
Ab|-5-----5-----2-----2-----9-----9-----10----10----|-5-----5-----2-----2-|
Eb|-3-----3-----0-----0-----7-----7-----10----10----|-3-----3-----0-----0-|

Guitar (clean)
db|-------------------------------------------------|---------------------|
Bb|-3-----3--3--0-----0-----7-----7-----12----12----|-3-----3--3--0--0--0-|
Gb|-4-----4--4--1-----1-----8-----8-----12----12----|-4-----4--4--1--1--1-|
Db|-5-----5--5--2-----2-----9-----9-----12----12----|-5-----5--5--2--2--2-|
Ab|-5-----5--5--2-----2-----9-----9-----10----10----|-5-----5--5--2--2--2-|
Eb|-3-----3--3--0-----0-----7-----7-----10----10----|-3-----3--3--0--0--0-|

Outro
Bass (Distorted)                                                                                  3:27
Gb|-------------------------------------------------|-------------------------------------------------|
Db|-------------------------------------------------|-------------------------------------------------|
Ab|-------------6-----6-----------------7-----7-----|-------------6-----6-----------------7-----7-----|
Eb|-2----(2)---/6-----6----/12----12\---5-----5-----|-2-----2----/6-----6----/12----12\---5-----5-----|

Organ
db|----11----11-------11----12-11-------11----------|----11----11-------11----12-11-------11----------|
Bb|----------------11----14-------14-12----14-12----|----------------11----14-------14-12----14-12----|
Gb|-11----11----12-------------------------------12-|-11----11----12-------------------------------12-|
Db|-------------------------------------------------|-------------------------------------------------|
Ab|-------------------------------------------------|-------------------------------------------------|
Eb|-------------------------------------------------|-------------------------------------------------|

Guitar (slightly overdriven)
db|-------------------------------------------------|-------------------------------------------------|
Bb|----4-----4--------4-----5--4--------4-----------|----4-----4--------4-----5--4--------4-----------|
Gb|----------------3-----6--------6--4-----6--4-----|----------------3-----6--------6--4-----6--4-----|
Db|-4-----4-----5--------------------------------5--|-4-----4-----5--------------------------------5--|
Ab|-------------------------------------------------|-------------------------------------------------|
Eb|-------------------------------------------------|-------------------------------------------------|


Bass (Distorted)                                                                                  3:45
Gb|-------------------------------------------------|-------------------------------------------------|----|
Db|-------------------------------------------------|-------------------------------------------------|----|
Ab|-------------6-----6-----------------7-----7-----|-------------6-----6-----------------7-----7-----|-6~-|
Eb|-2----(2)---/6-----6----/12----12\---5-----5-----|-2-----2----/6-----6----/12----12\---5-----5-----|-7~-|

Organ
db|----11----11-------11----12-11-------11----------|----11----11-------11----12-11-------11----------|
Bb|----------------11----14-------14-12----14-12----|----------------11----14-------14-12----14-12----|
Gb|-11----11----12-------------------------------12-|-11----11----12-------------------------------12-|
Db|-------------------------------------------------|-------------------------------------------------|
Ab|-------------------------------------------------|-------------------------------------------------|
Eb|-------------------------------------------------|-------------------------------------------------|

Guitar
db|----11----11-------11----12-11-------11----------|----11----11-------11----12-11-------11----------|----|
Bb|----------------11----14-------14-12----14-12----|----------------11----14-------14-12----14-12----|----|
Gb|-11----11----12-------------------------------12-|-11----11----12-------------------------------12-|-8~-|
Db|-------------------------------------------------|-------------------------------------------------|-9~-|
Ab|-------------------------------------------------|-------------------------------------------------|-6~-|
Eb|-------------------------------------------------|-------------------------------------------------|-7~-|

| b  bend
| r  release bend
| /  slide up
| \  slide down
| h  hammer-on
| p  pull-off
| ~  vibrato
|< > harmonic
| x  Mute note
|( ) Difficult to hear/not entirely necessary
Suggest correction
Give kudos to tab author, rate the tab!
1 2 3 4 5
comments
print report bad tab
guest
You may want to rate the tab now too:
select rating
Wanna post a correction for this tab? Suggest correction