Oops, an error
Loading. Please wait.

Go Your Way tab

173 views 1 this week
1 commentread comment
1 2 3 4 5
1 last vote to show rating
add to favorites
×
Save as Personal and add changes to this tab that will be seen only by you. Learn more ›
×
You can save this tab as Personal to edit and correct it or add notes. All changes will be seen only by you. Learn more »
launch autoscroll
font size
0
reset
how to read this tab
guitar tuner
edit
Autoscroll
slow
fast
+/-
esc
set tempo
stop
Author
Automatic Black
"Go your way" from De-Evolution CD
Tabbed by: draino231
Tuning: Standard
Listen to song at: www.automaticblack.com/audio.html


Intro/Main riff/Outro: Guitar 1 (Main riff/Outro no scratch at beggenning)

|xx---11---11---|
|xx-12---12-----|
|xx-------------|     x 7 or 8 (after 1st time no
|xx-------------|                scratch thing)
|xx-------------|
|xx-------------|

Intro/Main riff/Outro: Guitar 2 (Main riff/outro no scratch at beg.)

|xx------------------------------------------|
|xx-----xx-----------------------------------|
|xx-444-xx-----------------------------------|
|xx-444-xx-444-xx-666-xx-222-----------------|
|xx-222----444-xx-666-xx-222-----------------|   x2 (after first time no
|xx--------222-xx-444-xx-000-----------------|       scratch thing)

Verse- only two chords..figure out the strum on ur own

|-2-----0---------------------------------------------|
|-2-----0---------------------------------------------|
|-4-----1---------------------------------------------|
|-4-----2---------------------------------------------|
|-2-----2---------------------------------------------|
|-2-----0---------------------------------------------|

Breakdown at end of verse
"so won't you stay..."
 (all palm muted)
|--------------|
|--------------|
|-6-----9------|
|-6-x8--9-x8---|
|-4-----7------|
|--------------|


Chorus: Guitar 1

|---11---11---|
|-12---12-----|
|-------------|     x 7 or 8 or however many times it is
|-------------|
|-------------|
|-------------|

Chorus: Guitar 2

|------------------------------------------------|
|------------------------------------------------|
|444-xx----------------------444-xx--------------|
|444-xx-444-xx-666-xx-222-xx-444-xx-444-xx-222---|
|222-xx-444-xx-666-xx-222-xx-222-xx-444-xx-222---|  x2
|-------222-xx-444-xx-000-xx-----xx-222-xx-000---|

Breakdown 2: "you crawl..."

(all palm muted)
|-----------------------------|
|-----------------------------|
|-6-----9--------------6----9-|
|-6-x8--9-x8-9----4----6-x8-9-|
|-4-----7----9-x8-4-x8-4----7-|
|------------7----2-----------|

Order:
-Intro
-Verse 1
-Breakdown
-Main Riff (only 1x instead of 2)
-Chorus
-Verse 2
-Breakdown
-Main Riff (only 1x instead of 2)
-Chorus
-Breakdown 2
-Main Riff regular (he sings: "to you, to you")
-Verse 3
-Breakdown
-Main Riff (only 1x instead of 2)
-Chorus
-Outro

            
            
Suggest correction
Creating personal tab
Creating personal tab
You can edit any tab online and save it as your Personal.

You can edit, replace or remove any tab part or add personal notes – all changes will be seen only by you.

Personal tabs can be accessed anytime from any device, even offline.
Learn more »
Give kudos to tab author, rate the tab!
1 2 3 4 5
comments
print report bad tab
1 comment total.
0 reply
chrisbend24 95 Sep 30, 2007 08:05 AM

um, you forgot the lead guitar riff he's playing in the verse which is

e|--------
B|-4/5\4--
G|------4~
D|--------
A|--------
E|--------

You also forgot the Gb chord during the verse, there are three chords, not two

e|-2---2---0|
B|-2---2---0|
G|-4---2---1|
D|-4---4---2|
A|-2---4---2|
E|-2---2---0|

those are the chords you play in the verse

guest
You may want to rate the tab now too:
select rating
Wanna post a correction for this tab? Suggest correction