Oops, an error
Loading. Please wait.

Cicadas Song bass

455 views 1 this week
1 commentread comment
1 2 3 4 5
1 last vote to show rating
add to favorites
×
Save as Personal and add changes to this tab that will be seen only by you. Learn more ›
×
You can save this tab as Personal to edit and correct it or add notes. All changes will be seen only by you. Learn more »
launch autoscroll
font size
0
reset
guitar tuner
edit
Autoscroll
slow
fast
+/-
esc
set tempo
stop
Difficulty
intermediate
Autopilot Off
The Cicada's Song
Tabbed By: Shane Mackay

NOTE: / = slide
      ~ = let ring

  Intro
E|-4-444444----------2-222222-0-000000-----|
A|----------2-222222-----------------------|(2x)
D|-----------------------------------------|
G|-----------------------------------------|

E|-0/44444444-44444444-44444444-444444-2-|
A|---------------------------------------|
D|---------------------------------------|
G|---------------------------------------|

E|0/444444-24-------4--------------------|
A|-----------222222--2/444444-24/6666676-|
D|---------------------------------------|
G|---------------------------------------|

  Verse
E|-444-------444------444-------------------------------------|
A|---------2--------2---------2-----4-----2---(2x)------------|
D|-----2-1------2-1-------2-1---444---2-1---------------------|
G|------------------------------------------------------------|

  Pre Chorus (Tell me are you listening...)
E|-0000000000000000-2222222222222222--|
A|------------------------------------|
D|------------------------------------|
G|------------------------------------|

  Chorus
E|-4-444444----------2-222222-0-000000--|
A|----------2-222222--------------------|(4x)
D|--------------------------------------|
G|--------------------------------------|

  Bridge
E|-0/444444-24-------4--------------------|
A|------------222222--2/444444-24/6666676-|
D|----------------------------------------|
G|----------------------------------------|

  Alt. Chorus
E|-4-444444----------2-222222-0-000000-4-444444----------------------------|
A|----------2-222222----------------------------2-222222----------4-444444-|
D|-------------------------------------------------------4-444444----------|
G|-------------------------------------------------------------------------|

  Bridge 2 (and it landed...)
E|---------------------------------------------------------------------|
A|-4444444444444444-2222222222222222-4444444444444444------------------|
D|----------------------------------------------------2222222244444444-|
G|---------------------------------------------------------------------|

  Alt. Verse (I feel the knife...)
E|-444-------444-------444------------------------|
A|---------2---------2---------2------------------|
D|-----2-1-------2-1-------2-1---4~---------------|
G|------------------------------------------------|

  Bridge 3 (Out in the night...)
E|-0/444444-24-------4---------------------|
A|------------222222--2---------44444444---|(2x)
D|---------------------44444444------------|(Play 0/ first time only)
G|-----------------------------------------|

  Outtro
E|-444-------444-------444---------------------4~-|
A|---------2---------2---------2-----4-----2-4----|
D|-----2-1-------2-1-------2-1---444---2-1--------|
G|------------------------------------------------|

ORDER:
Intro
Verse
Pre Chorus
Chorus
Bridge
Verse
Pre Chorus
Alt. Chorus
Bridge 2
Alt. Verse
Alt. Chorus (2x)
Bridge 3
Outtro

this is my first tab so email me at s.j.mackay@comcast.net with questions or comments

            
            
Suggest correction
Creating personal tab
Creating personal tab
You can edit any tab online and save it as your Personal.

You can edit, replace or remove any tab part or add personal notes – all changes will be seen only by you.

Personal tabs can be accessed anytime from any device, even offline.
Learn more »
Give kudos to tab author, rate the tab!
1 2 3 4 5
comments
print report bad tab
1 comment total.
0 reply
a7xrocker201 10 Apr 15, 2013 12:56 PM

Tab sounds good, but when you lay it out I usually put the E string on the bottom and the G on the top.

guest
Wanna post a correction for this tab? Suggest correction