Oops, an error
Loading. Please wait.

Clockwork tab

version 2
version 2

Whole song

Interactive

118 views 1 this week
1 commentread comment
1 2 3 4 5
x 6
add to favorites
×
Save as Personal and add changes to this tab that will be seen only by you. Learn more ›
×
You can save this tab as Personal to edit and correct it or add notes. All changes will be seen only by you. Learn more »
launch autoscroll
font size
0
reset
how to read this tab
guitar tuner
edit
Autoscroll
slow
fast
+/-
esc
set tempo
stop
Intro bends slowly. Nice song from many differing formats. 

Intro: e|----------------------------------|
       B|----------------------------------|
       G|-55555555555555555555555555555555-|
       D|-55555555555555555555555555555555-|
       A|-33333333333333333333333333333333-|
       E|----------------------------------|

       e|-------------------------------------------------------------------------|
       B|-------------------------------------------------------------------------|
       G|-555555555555555---------------------555555555555555---------------------|
       D|-555555555555555-8-666666666666666-8-555555555555555-8-666666666666666-8-|
       A|-333333333333333-8-666666666666666-8-333333333333333-8-666666666666666-8-|
       E|-----------------6-444444444444444-6-----------------6-444444444444444-6-|

       e|-------------------------------------------------------------------|
       B|-------------------------------------------------------------------|
       G|-555555555555555---------------------555555555555555-88-xxx--------|
       D|-555555555555555-8-666666666666666-8-555555555555555-88-xxx-88-xxx-|
       A|-333333333333333-8-666666666666666-8-333333333333333-66-xxx-88-xxx-|
       E|-----------------6-444444444444444-6------------------------66-xxx-|

Verse: e|------------------------------------------------------|
       B|------------------------------------------------------|
       G|-5~---------------5-555555555555555-------------------|
       D|-5~-6-6-6-6-6-6-685-55555555555555586-666666666666666-|
       A|-3~-6-6-6-6-6-6-683-33333333333333386-666666666666666-|
       E|----4-4-4-4-4-4-46-----------------64-444444444444444-|

          You're probably sick of being tired. You can't find the strength to close your eyes.

Pre-Chorus: e|-----------------------------------------------------------------|
            B|-----------------------------------------------------------------|
            G|------------------------------------------5----------------------|
            D|-3-3-3-3-3-3-356-6-6-6-6-6-668-8-8-8-8-8-856-6-6-6-6666-6-6666-6-|
            A|-3-3-3-3-3-3-356-6-6-6-6-6-668-8-8-8-8-8-836-6-6-6-6666-6-6666-6-|
            E|-1-1-1-1-1-1-134-4-4-4-4-4-446-6-6-6-6-6-6-4-4-4-4-4444-4-4444-4-|

               You can't let go, but you can't change everything. Stop laying in this burning bed.

Chorus: e|-------------------------------------------------------------------|
        B|-------------------------------------------------------------------|
        G|-8-8-8-8---------5-5-5-5---------8-8-8-8---------------------------|
        D|-8-8-8-8-8-8-8-8-5-5-5-5-6-6-6-6-8-8-8-8-8-8-8-8-6-66-66-66-6-6666-|
        A|-6-6-6-6-8-8-8-8-3-3-3-3-6-6-6-6-6-6-6-6-8-8-8-8-6-66-66-66-6-6666-|
        E|---------6-6-6-6---------4-4-4-4---------6-6-6-6-4-44-44-44-4-4444-|

           Write it on the walls and read it, bright red so you can see it. Don't fail me now!

        e|-------------------------------------------------------------------|
        B|-------------------------------------------------------------------|
        G|-8-8-8-8---------5-5-5-5---------8-8-8-8---------------------------|
        D|-8-8-8-8-8-8-8-8-5-5-5-5-6-6-6-6-8-8-8-8-8-8-8-8-6-66-66-66-6-6666-|
        A|-6-6-6-6-8-8-8-8-3-3-3-3-6-6-6-6-6-6-6-6-8-8-8-8-6-66-66-66-6-6666-|
        E|---------6-6-6-6---------4-4-4-4---------6-6-6-6-4-44-44-44-4-4444-|

           Write it on the walls and read it until there are no secrets...so safe and sound at least for now!

Pre-Verse: e|-------------------------------------------------------------------|
           B|-------------------------------------------------------------------|
           G|-555555555555555---------------------555555555555555-88-xxx--------|
           D|-555555555555555-8-666666666666666-8-555555555555555-88-xxx-88-xxx-|
           A|-333333333333333-8-666666666666666-8-333333333333333-66-xxx-88-xxx-|
           E|-----------------6-444444444444444-6------------------------66-xxx-|

Verse: e|-----------------------------------------------------------|
       B|-----------------------------------------------------------|
       G|-5~-55~-5--------------5-555555555555555-------------------|
       D|-5~-55~-56-6-6-6-6-6-685-55555555555555586-666666666666666-|
       A|-3~-33~-36-6-6-6-6-6-683-33333333333333386-666666666666666-|
       E|---------4-4-4-4-4-4-46-----------------64-444444444444444-|

          Time's gonna warn you with a whisper what it wants to let you know.

Pre-Chorus: e|-----------------------------------------------------------------|
            B|-----------------------------------------------------------------|
            G|------------------------------------------5----------------------|
            D|-3-3-3-3-3-3-356-6-6-6-6-6-668-8-8-8-8-8-856-6-6-6-6666-6-6666-6-|
            A|-3-3-3-3-3-3-356-6-6-6-6-6-668-8-8-8-8-8-836-6-6-6-6666-6-6666-6-|
            E|-1-1-1-1-1-1-134-4-4-4-4-4-446-6-6-6-6-6-6-4-4-4-4-4444-4-4444-4-|

               Can't live in fear of the things that aren't for sure, so stay alive by playing dead.

Chorus: e|-------------------------------------------------------------------|
        B|-------------------------------------------------------------------|
        G|-8-8-8-8---------5-5-5-5---------8-8-8-8---------------------------|
        D|-8-8-8-8-8-8-8-8-5-5-5-5-6-6-6-6-8-8-8-8-8-8-8-8-6-66-66-66-6-6666-|
        A|-6-6-6-6-8-8-8-8-3-3-3-3-6-6-6-6-6-6-6-6-8-8-8-8-6-66-66-66-6-6666-|
        E|---------6-6-6-6---------4-4-4-4---------6-6-6-6-4-44-44-44-4-4444-|

           Write it on the walls and read it, bright red so you can see it. Don't fail me now!

        e|-------------------------------------------------------------------|
        B|-------------------------------------------------------------------|
        G|-8-8-8-8---------5-5-5-5---------8-8-8-8---------------------------|
        D|-8-8-8-8-8-8-8-8-5-5-5-5-6-6-6-6-8-8-8-8-8-8-8-8-6-66-66-66-6-6666-|
        A|-6-6-6-6-8-8-8-8-3-3-3-3-6-6-6-6-6-6-6-6-8-8-8-8-6-66-66-66-6-6666-|
        E|---------6-6-6-6---------4-4-4-4---------6-6-6-6-4-44-44-44-4-4444-|

           Write it on the walls and read it until there are no secrets...so safe and sound at least for now!

Bridge: e|-----------------------------------|
        B|-----------------------------------|
        G|----------5-5-5555-----------------|
        D|-8-8-8888-5-5-5555-6-6-666-666-666-|
        A|-8-8-8888-3-3-3333-6-6-666-666-666-|
        E|-6-6-6666----------4-4-444-444-444-|

           Still there are lines for us to write before we close our eyes

        e|-------------------------------------------------------------------|
        B|-------------------------------------------------------------------|
        G|----------5-5-5555-------------------------------------------------|
        D|-8-8-8888-5-5-5555-6-6-666-666-666-6-6-666-666-666-6-6-666-666-6-8-|
        A|-8-8-8888-3-3-3333-6-6-666-666-666-6-6-666-666-666-6-6-666-666-6-8-|
        E|-6-6-6666----------4-4-444-444-444-4-4-444-444-444-4-4-444-444-4-6-|

           And only time will tell the ending when the ink runs dry.

           Time will tell everything. It's ever so quiet counting down.

Solo: e|---------------------------------------------------------------|
      B|---------------------------------------------------------------|
      G|----5~-5~--------------------------5~-5~-----------------------|
      D|---5--5-----8~-8~----6~-6~-6~-----5--5-----8~-8~----6~-6~-6~---|
      A|-3~--------8--8----66--6--6--6--3~--------8--8----66--6--6--6--|
      E|---------6~------4~-----------6---------6~------4~-----------6-|

      e|---------------------------------------------------------------|
      B|---------------------------------------------------------------|
      G|---------------------------------------------------------------|
      D|----5~-5~---7~------8~-8~-8~-8~---5~-5~------------------------|
      A|-333--3--555--356~66--6--6--6--333--3-----8~-8~----6~-6~-6~-6~-|
      E|---------------------------------------666--6--4~44--4--4--4---|

Chorus: e|-------------------------------------------------------------------|
        B|-------------------------------------------------------------------|
        G|-8-8-8-8---------5-5-5-5---------8-8-8-8---------------------------|
        D|-8-8-8-8-8-8-8-8-5-5-5-5-6-6-6-6-8-8-8-8-8-8-8-8-6-66-66-66-6-6666-|
        A|-6-6-6-6-8-8-8-8-3-3-3-3-6-6-6-6-6-6-6-6-8-8-8-8-6-66-66-66-6-6666-|
        E|---------6-6-6-6---------4-4-4-4---------6-6-6-6-4-44-44-44-4-4444-|

           Write it on the walls and read it, blood red so you can see it. Life leaking out!

        e|-------------------------------------------------------------------|
        B|-------------------------------------------------------------------|
        G|-8-8-8-8---------5-5-5-5---------8-8-8-8---------------------------|
        D|-8-8-8-8-8-8-8-8-5-5-5-5-6-6-6-6-8-8-8-8-8-8-8-8-6-66-66-66-6-6666-|
        A|-6-6-6-6-8-8-8-8-3-3-3-3-6-6-6-6-6-6-6-6-8-8-8-8-6-66-66-66-6-6666-|
        E|---------6-6-6-6---------4-4-4-4---------6-6-6-6-4-44-44-44-4-4444-|

           Write it on the walls and read it (write it down)

           Until there are no secrets (oh-oh-oh no secrets)...so safe and sound

Outro: e|--------------------------------------------------------------------|
       B|--------------------------------------------------------------------|
       G|-5-5-555-8-8-----5-5-555---------5-5-555-8-8-----5-5-555---------5~-|
       D|-5-5-555-8-8-8-8-5-5-555-8-8-6-6-5-5-555-8-8-8-8-5-5-555-8-8-6-6-5~-|
       A|-3-3-333-6-6-8-8-3-3-333-8-8-6-6-3-3-333-6-6-8-8-3-3-333-8-8-6-6-3~-|
       E|-------------6-6---------6-6-4-4-------------6-6---------6-6-4-4----|

          At least for now! At least for now!

x = Muted Note
~ = Extended/Held Note

            
            
Suggest correction
Creating personal tab
Creating personal tab
You can edit any tab online and save it as your Personal.

You can edit, replace or remove any tab part or add personal notes – all changes will be seen only by you.

Personal tabs can be accessed anytime from any device, even offline.
Learn more »
comments
print report bad tab
1 comment total.
0 reply
the_tabber_b 10 Jan 23, 2016 06:11 PM

didn't like this contribution

guest
You may want to rate the tab now too:
select rating
Wanna post a correction for this tab? Suggest correction