Oops, an error
Loading. Please wait.

Make A Sound tab

6,922 views 1 this week
2 commentsread comments
1 2 3 4 5
x 3
add to favorites
×
Save as Personal and add changes to this tab that will be seen only by you. Learn more ›
×
You can save this tab as Personal to edit and correct it or add notes. All changes will be seen only by you. Learn more »
launch autoscroll
font size
0
reset
how to read this tab
guitar tuner
edit
Autoscroll
slow
fast
+/-
esc
set tempo
stop
-------------------------------------------------------------------------------
                             Make a Sound - Autopilot Off
-------------------------------------------------------------------------------
Tabbed by: Scuba Steve 
Email: swagner13@earthlink.net
(My first online tab, not perfect, but then again it's by ear.)
Tuning: Standard E

Intro (0:00 - 0:18)
e|-------------------------------------------------------------------------|
B|-------------------------------------------------------------------------|
G|-6---------9----------4--------------------------------------------------|x2 
D|66-x8------9-x8-------4-x8------4----------------------------------------|
A|64---------7----------2---------4-x8--(second time; x1, let ring out)----|
E|4-------------------------------2----------------------------------------|

Verse (0:18 - 0:37)
e|-------------------------------------------------------------------------|
B|-------------------------------------------------------------------------|
G|-6---------9----------4--------------------------------------------------|x2
D|-6-x8------9-x8-------4-x8--(x16 on 2nd)----4----------------------------|
A|-4---------7----------2---------------------4-x8--(skip on 2nd)----------|
E|--------------------------------------------2----------------------------|
pre-chorus (0:37 - 0:53)
e|-------------------------------------------------------------------------|
B|-------------------------------------------------------------------------|
G|-6----8--9----8--6----------------6----8--9----8--8----------------------|
D|-6----8--9----8--6----------------6----8--9----8--8-x(repeat til chorus)-|
A|-4----6--7----6--4----------------4----6--7----6--6----------------------|
E|-------------------------------------------------------------------------|
Chorus   (0:53 - 1:15)
e|-------------------------------------------------------------------------|
B|-------------------------------------------------------------------------|
G|-6--6-6--6-4---6-6-------9----11---/13---2-------------------------------|x2
D|-6--6-6--6-4---6-6-x3----9x3--11-x3/13---2-x8---4------6-----------------|
A|-4--4-4--4-2---4-4-------7----9----/11---0------4-x3---6-x3--------------|
E|------------------------------------------------2------4-----------------|

Verse      (1:15 - 1:33)
Pre-Chorus (1:34 - 1:49)
Chorus     (1:50 - 2:12)

Bridge (2:12 - 2:39)
e|---------------------------------|   |-0-------0-------0-------0---------|
B|---------------------------------|   |-2-------2-------2-------2---------|
G|-------6/8-----------------------|x2 |-1-------1-------1-------1---------|
D|-6-----6/8----------6-------2----|   |-----------------------------------|
A|-6-----4/6----------6-------2----|   |-----------------------------------|
E|-4------------------4-------0----|   |-----------------------------------|

Chorus x2 (2:40 - 3:20)

 
Outro (has a reverb effect) (3:20 - 3:43)
e|-------------------------------------------------------------------------|
B|-------------------------------------------------------------------------|
G|--6----------------------------------------------------------------------|
D|--6-x8--(last note ring out)---------------------------------------------|
A|--4----------------------------------------------------------------------|
E|-------------------------------------------------------------------------|


| /  slide up
| \  slide down
| h  hammer-on
| p  pull-off
| ~  vibrato
| +  harmonic
| x  Mute note
===============================================================================
Awesome song, awesome band. Peace.

            
            
Suggest correction
Creating personal tab
Creating personal tab
You can edit any tab online and save it as your Personal.

You can edit, replace or remove any tab part or add personal notes – all changes will be seen only by you.

Personal tabs can be accessed anytime from any device, even offline.
Learn more »
Give kudos to tab author, rate the tab!
1 2 3 4 5
comments
print report bad tab
2 comments total.
0 reply
lilllll j 41 Jun 27, 2008 01:05 PM

its too high, i ended up tabbing some bar chords by the nut on the last strings instead of sliding horribly.

0 reply
Goron40 42 Dec 03, 2010 08:47 AM

Chorus (0:53 - 1:15)

e|-------------------------------------------------------------------------|
B|-------------------------------------------------------------------------|
G|-6--6-6--6-4---6-6-------9----11---/13---2-------------4-----------------|x2
D|-6--6-6--6-4---6-6-x3----9x3--11-x3/13---2-x8---2------4-3x--------------|
A|-4--4-4--4-2---4-4-------7----9----/11---0------2-x3---2-----------------|
E|------------------------------------------------0------------------------|

guest
You may want to rate the tab now too:
select rating
Wanna post a correction for this tab? Suggest correction