Oops, an error
Loading. Please wait.

Istoriya Padeniya Tab

version 1
version 1

Whole song

Interactive

594 views 1 this week
no commentswrite comment
1 2 3 4 5
please rate
add to favorites
launch autoscroll
font size
0
reset
how to read this tab
guitar tuner
Tab Pro tools
  • play this tab
  • loop segment
  • change instrument
  • show fretboard
  • metronome
×
Best way to learn
"Istoriya Padeniya"
Autoscroll
slow
fast
+/-
esc
set tempo
stop
Contributor
                       ISTORIYA PADENIYA (STORY OF A FALL)
                             As recorded by Autoscan
                        (From the 2007 Album AUTOSCAN EP)

Music by Autoscan
Transcribed by Patsyxcore

Gtr I (C G C F A D) - 'Untitled'
Gtr II (C G C F A D) - 'Untitled'

   Intro
    Q=216
    D5  F5                  F5
   4/4
    Gtrs I, II
    PM|
    E E  E  E  E  E  E  E    E  E  E  E  E  E  E  E
||------------------------|-------------------------|
||o-----------------------|-------------------------|
||------10-10-10-10-10-10-|-10-10-10-10-10-10-10-10-|
||------10-10-10-10-10-10-|-10-10-10-10-10-10-10-10-|
||o-0-0--8--8--8--8--8--8-|--8--8--8--8--8--8--8--8-|
||--0-0-------------------|-------------------------|


  D5  F5                  F5
  PM|
  E E  E  E  E  E  E  E    E  E  E  E  E  E  E  E
|-----------------------|-------------------------|
|-----------------------|-------------------------|
|-----10-10-10-10-10-10-|-10-10-10-10-10-10-10-10-|
|-----10-10-10-10-10-10-|-10-10-10-10-10-10-10-10-|
|-0-0--8--8--8--8--8--8-|--8--8--8--8--8--8--8--8-|
|-0-0-------------------|-------------------------|


  G5  F5                  F5
  PM|
  E E  E  E  E  E  E  E    E  E  E  E  E  E  E  E
|-----------------------|-------------------------|
|-----------------------|-------------------------|
|-----10-10-10-10-10-10-|-10-10-10-10-10-10-10-10-|
|-----10-10-10-10-10-10-|-10-10-10-10-10-10-10-10-|
|-5-5--8--8--8--8--8--8-|--8--8--8--8--8--8--8--8-|
|-5-5-------------------|-------------------------|


                   1.
  Bb5               F5
  E E E E E E E E   E E E E E E E E
|-----------------|------------------||
|-----------------|-----------------o||
|-----------------|------------------||
|-8-8-x-x-8-8-x-x-|-3-3-x-x-3-3-x-x--||
|-8-8-x-x-8-8-x-x-|-3-3-x-x-3-3-x-x-o||
|-8-8-x-x-8-8-x-x-|-3-3-x-x-3-3-x-x--||


  2.
  D5
  PM---------------|
  S S S S Q  S S S S Q
|-----------------------|
|-----------------------|
|-----------------------|
|-----------------------|
|-0-0-0-0----0-0-0-0----|
|-0-0-0-0----0-0-0-0----|


   Build up
    N.C.
    S S S S S S S S S S S S S S S S   S S S S S S S S S S S S S S S S   4x
||----------------------------------|-----------------------------------||
||o---------------------------------|----------------------------------o||
||----------------------------------|-----------------------------------||
||----------------------------------|-----------------------------------||
||o---------2-2-2-2-5-5-5-5-1-1-1-1-|----------------------------------o||
||--0-0-0-0-------------------------|-2-2-2-2-5-5-5-5-1-1-1-1-4-4-4-4---||


    D5              N.C.
    PM---------|
    E E E Q  E Q    S S S S S S S S S S S S  E    +E
||----------------|-----------------------------------|
||o---------------|-----------------------------------|
||----------------|-----------------------------------|
||----------------|-----------------------------------|
||o-0-0-0-0--0-0--|-2-2-2-2-5-5-5-5-1-1-1-1-[4]b6r(4)-|
||--0-0-0-0--0-0--|-----------------------------------|


  D5              N.C.
  PM---------|
  E E E Q  E Q    S S S S S S S S S S S S  E    +E
|---------------|---------------------------------------||
|---------------|--------------------------------------o||
|---------------|---------------------------------------||
|---------------|---------------------------------------||
|-0-0-0-0--0-0--|--------------------------------------o||
|-0-0-0-0--0-0--|-2-2-2-2-5-5-5-5-1-1-1-1-[4]b6r(4)-----||


 Breakdown
  D5                     D5    Eb5   E5    Eb5
  PM-------------------------------------------|
  S S S S S S S S H      S S E S S E S S E S S E
|----------------------|-------------------------|
|----------------------|-------------------------|
|----------------------|-------------------------|
|----------------------|-------------------------|
|-0-0-0---0-0-0--------|-0-0-0-1-1-1-2-2-2-1-1-1-|
|-0-0-0---0-0-0--------|-0-0-0-1-1-1-2-2-2-1-1-1-|


  D5                     D5    Eb5   E5    N.C.
  PM-------------------------------------|
  S S S S S S S S H      S S E S S E S S E  S   S   S   S
|----------------------|-----------------------------------|
|----------------------|-----------------------------------|
|----------------------|-----------------------------------|
|----------------------|-------------------<5>-<5>-<5>-<5>-|
|-0-0-0---0-0-0--------|-0-0-0-1-1-1-2-2-2-----------------|
|-0-0-0---0-0-0--------|-0-0-0-1-1-1-2-2-2-----------------|


  D5                     D5    Eb5   E5    Eb5
  PM-------------------------------------------|
  S S S S S S S S H      S S E S S E S S E S S E
|----------------------|-------------------------|
|----------------------|-------------------------|
|----------------------|-------------------------|
|----------------------|-------------------------|
|-0-0-0---0-0-0--------|-0-0-0-1-1-1-2-2-2-1-1-1-|
|-0-0-0---0-0-0--------|-0-0-0-1-1-1-2-2-2-1-1-1-|


  D5                     D5    Eb5
  PM-------------------------------|
  S S S S S S S S H      S S E S S E H
|----------------------|------------------|
|----------------------|------------------|
|----------------------|------------------|
|----------------------|------------------|
|-0-0-0---0-0-0--------|-0-0-0-1-1-1------|
|-0-0-0---0-0-0--------|-0-0-0-1-1-1------|


 Intro reprise
  D5  F5                  F5
  PM|
  E E  E  E  E  E  E  E    E  E  E  E  E  E  E  E
|-----------------------|-------------------------|
|-----------------------|-------------------------|
|-----10-10-10-10-10-10-|-10-10-10-10-10-10-10-10-|
|-----10-10-10-10-10-10-|-10-10-10-10-10-10-10-10-|
|-0-0--8--8--8--8--8--8-|--8--8--8--8--8--8--8--8-|
|-0-0-------------------|-------------------------|


  D5  F5                  F5
  PM|
  E E  E  E  E  E  E  E    E  E  E  E  E  E  E  E
|-----------------------|-------------------------|
|-----------------------|-------------------------|
|-----10-10-10-10-10-10-|-10-10-10-10-10-10-10-10-|
|-----10-10-10-10-10-10-|-10-10-10-10-10-10-10-10-|
|-0-0--8--8--8--8--8--8-|--8--8--8--8--8--8--8--8-|
|-0-0-------------------|-------------------------|


  G5  F5                  F5
  PM|
  E E  E  E  E  E  E  E    E  E  E  E  E  E  E  E
|-----------------------|-------------------------|
|-----------------------|-------------------------|
|-----10-10-10-10-10-10-|-10-10-10-10-10-10-10-10-|
|-----10-10-10-10-10-10-|-10-10-10-10-10-10-10-10-|
|-5-5--8--8--8--8--8--8-|--8--8--8--8--8--8--8--8-|
|-5-5-------------------|-------------------------|


  Bb5               F5
  E E E E E E E E   E E E E E E E E
|-----------------|-----------------|
|-----------------|-----------------|
|-----------------|-----------------|
|-8-8-x-x-8-8-x-x-|-3-3-x-x-3-3-x-x-|
|-8-8-x-x-8-8-x-x-|-3-3-x-x-3-3-x-x-|
|-8-8-x-x-8-8-x-x-|-3-3-x-x-3-3-x-x-|


  F5
   E  E Q   E  E Q     E  E Q   E  E Q     q   q   q   q     q   q   q   q
|-------------------|-------------------|-----------------|-----------------|
|-------------------|-------------------|-----------------|-----------------|
|-10-10----10-10----|-10-10----10-10----|-10--10--10--10--|-10--10--10--10--|
|-10-10----10-10----|-10-10----10-10----|-10--10--10--10--|-10--10--10--10--|
|--8--8-----8--8----|--8--8-----8--8----|--8---8---8---8--|--8---8---8---8--|
|-------------------|-------------------|-----------------|-----------------|


  F5
   E  E Q   E  E Q     E  E Q   E  E Q
|-------------------|-------------------|
|-------------------|-------------------|
|-10-10----10-10----|-10-10----10-10----|
|-10-10----10-10----|-10-10----10-10----|
|--8--8-----8--8----|--8--8-----8--8----|
|-------------------|-------------------|


                    D5
                    PM-----------------|
   q   q   q   q    S S S S Q  S S S S Q
|-----------------|-----------------------|
|-----------------|-----------------------|
|-10--10--10--10--|-----------------------|
|-10--10--10--10--|-----------------------|
|--8---8---8---8--|-0-0-0-0----0-0-0-0----|
|-----------------|-0-0-0-0----0-0-0-0----|


   Build up II
    N.C.
    S S S S S S S S S S S S S S S S   S S S S S S S S S S S S S S S S   3x
||----------------------------------|-----------------------------------||
||o---------------------------------|----------------------------------o||
||----------------------------------|-----------------------------------||
||----------------------------------|-----------------------------------||
||o---------2-2-2-2-5-5-5-5-1-1-1-1-|----------------------------------o||
||--0-0-0-0-------------------------|-2-2-2-2-5-5-5-5-1-1-1-1-4-4-4-4---||


  N.C.                              E5 G5 Eb5Gb5
                                    PM-------|
  S S S S S S S S S S S S S S S S   Q  Q  Q  Q
|---------------------------------|-------------|
|---------------------------------|-------------|
|---------------------------------|-------------|
|---------------------------------|-------------|
|---------2-2-2-2-5-5-5-5-1-1-1-1-|-2--5--1--4--|
|-0-0-0-0-------------------------|-2--5--1--4--|


   Breakdown II
    Q=156
    D5 B5 D5 Bb5  E5 G5 Eb5     Gb5  D5 B5 D5 Bb5  E5 G5 Eb5     Gb5
    PM-----------------------------------------------------------|
    Q  Q  Q  Q    Q  Q  S S S S Q    Q  Q  Q  Q    Q  Q  S S S S Q
||--------------|------------------|-------------|--------------------||
||o-------------|------------------|-------------|-------------------o||
||--------2-----|------------------|-------2-----|--------------------||
||-----4--0--3--|------------------|----4--0--3--|--------------------||
||o-0--2-----1--|-2--5--1-1-1-1-4--|-0--2-----1--|-2--5--1-1-1-1-4---o||
||--0-----------|-2--5--1-1-1-1-4--|-0-----------|-2--5--1-1-1-1-4----||


 Build I 1/2
  N.C.
  S S S S S S S S S S S S S S S S   S S S S S S S S S S S S S S S S
|---------------------------------|---------------------------------|
|---------------------------------|---------------------------------|
|---------------------------------|---------------------------------|
|---------------------------------|---------------------------------|
|---------2-2-2-2-5-5-5-5-1-1-1-1-|---------------------------------|
|-0-0-0-0-------------------------|-2-2-2-2-5-5-5-5-1-1-1-1-4-4-4-4-|


  N.C.
  S S S S S S S S S S S S S S S S   S S S S S S S S S S S S Q    +W
|---------------------------------|----------------------------|--------|
|---------------------------------|----------------------------|--------|
|---------------------------------|----------------------------|--------|
|---------------------------------|----------------------------|--------|
|---------2-2-2-2-5-5-5-5-1-1-1-1-|----------------------------|--------|
|-0-0-0-0-------------------------|-2-2-2-2-5-5-5-5-1-1-1-1-4--|-(4)----|


 Breakdown I 1/2
  Q=216
  D5                     D5    Eb5   E5    Eb5
  PM----------------------------------------------
  S S S S S S S S H      S S E S S E S S E S S E
|----------------------|-------------------------|
|----------------------|-------------------------|
|----------------------|-------------------------|
|----------------------|-------------------------|
|-0-0-0---0-0-0--------|-0-0-0-1-1-1-2-2-2-1-1-1-|
|-0-0-0---0-0-0--------|-0-0-0-1-1-1-2-2-2-1-1-1-|


  D5                     D5    Eb5   E5    Eb5
 ----------------------------------------------|
  S S S S S S S S H      S S E S S E S S E S S E
|----------------------|----------------------------|
|----------------------|----------------------------|
|----------------------|----------------------------|
|----------------------|----------------------------|
|-0-0-0---0-0-0--------|-0-0-0-1-1-1-2-2-2-1-1-1----|
|-0-0-0---0-0-0--------|-0-0-0-1-1-1-2-2-2-1-1-1----|


  PM----------------------------------------------
  S S S S S S S S H      S S E S S E S S E S S E
|----------------------|-------------------------|
|----------------------|-------------------------|
|----------------------|-------------------------|
|----------------------|-------------------------|
|-0-0-0---0-0-0--------|-0-0-0-1-1-1-2-2-2-1-1-1-|
|-0-0-0---0-0-0--------|-0-0-0-1-1-1-2-2-2-1-1-1-|


 ------------------------------------|
  S S S S S S S S H      S S E S S E H
|----------------------|------------------|
|----------------------|------------------|
|----------------------|------------------|
|----------------------|------------------|
|-0-0-0---0-0-0--------|-0-0-0-1-1-1------|
|-0-0-0---0-0-0--------|-0-0-0-1-1-1------|


 Intro reprise II
  D5  F5                  F5
  PM|
  E E  E  E  E  E  E  E    E  E  E  E  E  E  E  E
|-----------------------|-------------------------|
|-----------------------|-------------------------|
|-----10-10-10-10-10-10-|-10-10-10-10-10-10-10-10-|
|-----10-10-10-10-10-10-|-10-10-10-10-10-10-10-10-|
|-0-0--8--8--8--8--8--8-|--8--8--8--8--8--8--8--8-|
|-0-0-------------------|-------------------------|


  D5  F5                  F5
  PM|
  E E  E  E  E  E  E  E    E  E  E  E  E  E  E  E
|-----------------------|-------------------------|
|-----------------------|-------------------------|
|-----10-10-10-10-10-10-|-10-10-10-10-10-10-10-10-|
|-----10-10-10-10-10-10-|-10-10-10-10-10-10-10-10-|
|-0-0--8--8--8--8--8--8-|--8--8--8--8--8--8--8--8-|
|-0-0-------------------|-------------------------|


  G5  F5                  F5
  PM|
  E E  E  E  E  E  E  E    E  E  E  E  E  E  E  E
|-----------------------|-------------------------|
|-----------------------|-------------------------|
|-----10-10-10-10-10-10-|-10-10-10-10-10-10-10-10-|
|-----10-10-10-10-10-10-|-10-10-10-10-10-10-10-10-|
|-5-5--8--8--8--8--8--8-|--8--8--8--8--8--8--8--8-|
|-5-5-------------------|-------------------------|


  Bb5               Bb5
  E E E E E E E E   E E E E E E E E
|-----------------|-----------------|
|-----------------|-----------------|
|-----------------|-----------------|
|-8-8-x-x-8-8-x-x-|-3-3-x-x-3-3-x-x-|
|-8-8-x-x-8-8-x-x-|-3-3-x-x-3-3-x-x-|
|-8-8-x-x-8-8-x-x-|-3-3-x-x-3-3-x-x-|


  F5
   E  E Q   E  E Q     E  E Q   E  E Q     q   q   q   q     q   q   q   q
|-------------------|-------------------|-----------------|-----------------|
|-------------------|-------------------|-----------------|-----------------|
|-10-10----10-10----|-10-10----10-10----|-10--10--10--10--|-10--10--10--10--|
|-10-10----10-10----|-10-10----10-10----|-10--10--10--10--|-10--10--10--10--|
|--8--8-----8--8----|--8--8-----8--8----|--8---8---8---8--|--8---8---8---8--|
|-------------------|-------------------|-----------------|-----------------|


  F5
   E  E Q   E  E Q     E  E Q   E  E Q     q   q   q   q     q   q   q   q
|-------------------|-------------------|-----------------|-----------------|
|-------------------|-------------------|-----------------|-----------------|
|-10-10----10-10----|-10-10----10-10----|-10--10--10--10--|-10--10--10--10--|
|-10-10----10-10----|-10-10----10-10----|-10--10--10--10--|-10--10--10--10--|
|--8--8-----8--8----|--8--8-----8--8----|--8---8---8---8--|--8---8---8---8--|
|-------------------|-------------------|-----------------|-----------------|


   Outro
    D5  F5                  F5
    PM|
    E E  E  E  E  E  E  E    E  E  E  E  E  E  E  E
||------------------------|-------------------------|
||o-----------------------|-------------------------|
||------10-10-10-10-10-10-|-10-10-10-10-10-10-10-10-|
||------10-10-10-10-10-10-|-10-10-10-10-10-10-10-10-|
||o-0-0--8--8--8--8--8--8-|--8--8--8--8--8--8--8--8-|
||--0-0-------------------|-------------------------|


  F5                        F5
   E  E  E  E  E  E  E  E    E  E  E  E  E  E  E  E
|-------------------------|--------------------------|
|-------------------------|--------------------------|
|-10-10-10-10-10-10-10-10-|-10-10-10-10-10-10-10-10--|
|-10-10-10-10-10-10-10-10-|-10-10-10-10-10-10-10-10--|
|--8--8--8--8--8--8--8--8-|--8--8--8--8--8--8--8--8--|
|-------------------------|--------------------------|


  G5  F5                  F5
  PM|
  E E  E  E  E  E  E  E    E  E  E  E  E  E  E  E
|-----------------------|-------------------------|
|-----------------------|-------------------------|
|-----10-10-10-10-10-10-|-10-10-10-10-10-10-10-10-|
|-----10-10-10-10-10-10-|-10-10-10-10-10-10-10-10-|
|-5-5--8--8--8--8--8--8-|--8--8--8--8--8--8--8--8-|
|-5-5-------------------|-------------------------|


                   1.
  Bb5               F5
  E E E E E E E E   E E E E E E E E
|-----------------|------------------||
|-----------------|-----------------o||
|-----------------|------------------||
|-8-8-8-8-8-8-8-8-|-3-3-3-3-3-3-3-3--||
|-8-8-8-8-8-8-8-8-|-3-3-3-3-3-3-3-3-o||
|-8-8-8-8-8-8-8-8-|-3-3-3-3-3-3-3-3--||


  2.
  D5
  PM-----------------|
  S S S S Q  S S S S Q    W
|-----------------------|------*|
|-----------------------|------*|
|-----------------------|------*|
|-----------------------|------*|
|-0-0-0-0----0-0-0-0----|------*|
|-0-0-0-0----0-0-0-0----|------*|


Duration Legend
---------------
W - whole; H - half; Q - quarter; E - 8th; S - 16th; T - 32nd; X - 64th; a - acciaccatura
+ - note tied to previous; . - note dotted; .. - note double dotted
Uncapitalized letters represent notes that are staccato (1/2 duration)
Irregular groupings are notated above the duration line
Duration letters will always appear directly above the note/fret number it represents the
duration for.  Duration letters with no fret number below them represent rests.  Multi-
bar rests are notated in the form Wxn, where n is the number of bars to rest for.  Low
melody durations appear below the staff

Tablature Legend
----------------
 h   - hammer-on
 p   - pull-off
 b   - bend
 pb  - pre-bend
 r   - bend release (if no number after the r, then release immediately)
 /\  - slide into or out of (from/to "nowhere")
 s   - legato slide
 S   - shift slide
  - natural harmonic
[n]  - artificial harmonic
n(n) - tapped harmonic
 ~   - vibrato
 tr  - trill
 T   - tap
 TP  - trem. picking
 PM  - palm muting
\n/  - tremolo bar dip; n = amount to dip
 \n  - tremolo bar down
 n/  - tremolo bar up
/n\  - tremolo bar inverted dip
 =   - hold bend; also acts as connecting device for hammers/pulls
 <>  - volume swell (louder/softer)
 x   - on rhythm slash represents muted slash
 o   - on rhythm slash represents single note slash

Misc Legend
-----------
 |  - bar
||  - double bar
||o - repeat start
o|| - repeat end
*|  - double bar (ending)
 :  - bar (freetime)
 $  - Segno
 &  - Coda
Tempo markers -  = BPM(8/16=s8/s16), where s8 = swing 8ths, s16 = swing 16ths
comments
We did not receive enough feedback on this tab! Please rate:
print report bad tab
1 2 3 4 5
I want to post or [tab]
guest
You may want to rate the tab now too:
select rating
Please do not post tabs as comments. Select "correction" instead!