Oops, an error
Loading. Please wait.

Mixtape chords

397 views 1 this week
2 commentsread comments
1 2 3 4 5
x 9
add to favorites
×
Save as Personal and add changes to this tab that will be seen only by you. Learn more ›
×
You can save this tab as Personal to edit and correct it or add notes. All changes will be seen only by you. Learn more »
launch autoscroll
font size
0
reset
transpose
0
reset
display chords
guitar tuner
edit
Autoscroll
slow
fast
+/-
esc
set tempo
stop
Strumming
There is no strumming pattern for this song yet. and get +5 IQ
SONG:   MIXTAPE
ARTIST: AUTUMN HILL
TAB BY: DON CZARSKI
EMAIL:  GUITARZAN7@HOTMAIL.COM


                    MIXTAPE
                  AUTUMN HILL

INTRO: (This is also played during the VERSES)

    F#            B
E -------------------------------------
B -------------------------------------
G -----------------------6------------
D --4-3----4-3----4-6-4-----8-6-6/8-8--
A ------4------4-----------------------
E ------------------------------------- 

VERSE:
 F#                         
After lunch passing in the hall
               D#m
I handed it to you then walked away
F#                     
I kicked it off with "Wonderwall"
                           B                
A little "In Your Eyes", "November Rain"

F#
R.E.M singing "Everybody Hurts"
     
But nobody hurts like the first love gone
B
I sing along, I sing along, I sing along, 

Oh yeah


PRE-CHORUS:
F#   B   
I remember 
 
Pressing rewind to feel it one more time
            F#       B
And playing over and over 

All your favourite songs
                             
And I was making them mine, yeah
F#
I know you loved me, I know you did
       B
Everything that I wanted to say, yeah


CHORUS:
              F#  B
I put it on a mixtape

And that memory ain't going away 
                         F# B
'Cause I've got it on a mixtape

Yeah, yeah, uh uh


VERSE:
F#
I wore it out all summer long
    D#m
Side A, Side B, 
 F#
Whatever one it started on
 B
Behind my bedroom door
      
Listen on my own 
          
With the headphones on


PRE-CHORUS:
F#   B
I remember 

Pressing rewind to feel it one more time
            F#       B
And playing over and over 
         
All your favourite songs
          
And I was making them mine, yeah
F#                       B
I know you loved me, I know you did

Everything that I wanted to say, yeah


CHORUS:
               F# B
I put it on a mixtape

And that memory ain't going away 
                         F# B
'Cause I've got it on a mixtape

Yeah, yeah, uh uh


INSTRUMENTAL:
F#  B  F#

SOLO: thanks to ayreon77 for doing this solo tab for me to add here.

With Wha Wha
02:02
e|----------|----------|----------------------|
B|----------|----------|----------------------|
G|-11-10----|-11-10----|---s---11----11----11-|
D|-------11-|-------11-|-11\13----13----13----|
A|----------|----------|----------------------|
E|----------|----------|----------------------|


e|----------|---------------------|---------------------------------h---|
B|----------|------s--14---s------|------s--14-14-----14----14----14-16-|
G|---h---11-|-11-13\15---15\13-11-|-11-13\15-------15----15----15-------|
D|-11-13----|---------------------|-------------------------------------|
A|----------|---------------------|-------------------------------------|
E|----------|---------------------|-------------------------------------|

     s       s       s      h         h 
e|-11-13---13\14---14\16--14-16--14-16-18-|
B|----------------------------------------|
G|----------------------------------------|
D|----------------------------------------|
A|----------------------------------------|
E|----------------------------------------|

BREAK:
  D#m
A Memorex with a handwritten note
C#
 Every title, every word you wrote
B
One listen and it's like I go 
 F#           G#m
Right back to you


PRE-CHORUS:
F#
I remember 

Pressing rewind to feel it one more time
            F#       B
And playing over and over 
          
All your favourite songs

And I was making them mine, yeah
F#                      B
I know you loved me, I know you did

Everything that I wanted to say, yeah


CHORUS:
               F# B
I put it on a mixtape

And that memory ain't going away 
                       F# B
'Cause I've got it on mixtape

Turn the stereo up and push play
                  F# B
I've got it on a mixtape, 

Ain't never gonna throw it away
                      F# B
No, I've got it on a mixtape, alright

Mmmmm mmmm mmm
 F# B    
Mixtape

            
            
Suggest correction
Creating personal tab
Creating personal tab
You can edit any tab online and save it as your Personal.

You can edit, replace or remove any tab part or add personal notes – all changes will be seen only by you.

Personal tabs can be accessed anytime from any device, even offline.
Learn more »
comments
print report bad tab
2 comments total.
0 reply
DON CZARSKI [tm] 28,135 Mar 28, 2016 08:11 AM

Thanks to ayreon77 a UG member who tabbed the SOLO out for me to add to my tab.... I always rely on him for these solos.

0 reply
ayreon77 21,833 Mar 28, 2016 10:17 AM

no prob Don, I always rely on you to give me them too :-)

guest
You may want to rate the tab now too:
select rating
Wanna post a correction for this tab? Suggest correction