Oops, an error
Loading. Please wait.

Youre Beautiful tab

621 views 1 this week
no commentswrite comment
1 2 3 4 5
3 more votes to show rating
add to favorites
×
Save as Personal and add changes to this tab that will be seen only by you. Learn more ›
×
You can save this tab as Personal to edit and correct it or add notes. All changes will be seen only by you. Learn more »
launch autoscroll
font size
0
reset
how to read this tab
guitar tuner
edit
Autoscroll
slow
fast
+/-
esc
set tempo
stop
Author
Difficulty
-------------------------------------------------------------------------------
                             YOU'RE BEAUTIFUL - Avalon Beyond
-------------------------------------------------------------------------------
Official Band Page : www.facebook.com/avalonbeyond
                     www.twitter.com/avalonbeyond
                     www.instagram.com/avalonbeyond
Tabbed by: Jay
E-mail:    jagelosering@ymail.com
Tuning:    Standard

This is my first tabbing, its not accurate enough but it is in my ears :-)

E     x799xx
A9    x099xx / x02200
C#    x466xx
B     x244xx

Verse 1

e|--------------------------------------------------------------|
b|--------------------------------------------------------------|
g|----9----------9----------6----------4----------2-------------|    x2
D|----9--x16-----9--x16-----6---x8-----4---x8-----2---x16-------|
A|----7----------0----------4----------2----------0-------------|
E|--------------------------------------------------------------|
pm.............................................................


Shattered places, while your heart bleeds out
Different faces, let your heart speak out
You’ve been living more and more
It’s more than what you’ve ask for

Broken window, you’re like an open door
Nothings harder than what you’re fighting for
If you feel alone tonight
It will be the last time

(Strum down once the last note A)


Chorus

e|--------------------------------------------------------------|
b|--------------------------------------------------------------|
g|----9----------9----------6----------4----------2-------------|
D|----9--x16-----9--x16-----6---x8-----4---x8-----2---x16-------|
A|----7----------0----------4----------2----------0-------------|
E|--------------------------------------------------------------|
pm.............................................................

I’m here tonight
You’ll always have a place to stay here in my life
There’ll always be a bright tomorrow
Hold me tight
You’re always gonna be my beautiful
You’re beautiful

e|----------------------------------------------------------------|
b|----------------------------------------------------------------|
g|----8--6--8--6--8--9--8--6--x3----8--6--8--6--9-----------------|  
D|----------------------------------------------------------------|
A|----------------------------------------------------------------|
E|----------------------------------------------------------------|

Verse 2

e|----0----------0----------0----------0----------0-------------|
b|----0----------0----------0----------0----------0-------------|
g|----9----------9----------6----------4----------2-------------| (listen to the song for strumming pattern)
D|----9--x16-----9--x16-----6---x8-----4---x8-----2---x16-------|
A|----7----------0----------4----------2----------0-------------|
E|--------------------------------------------------------------|

When your life shakes and your hope is gone
Hear my heart speak, Coz I’ll be holding on
You’ll never feel the pain again
I’m here to keep you movin’

When your heart breaks, more than what you can take
Here my heartbeat and it will be ok
You’ll never feel alone again
Just promise you’ll be fightin’
Coz I’ll be fightin’

Repeat Chorus (this time not PMed)

I’m here tonight
You’ll always have a place to stay here in my life
There’ll always be a bright tomorrow
Hold me tight
You’re always gonna be my beautiful
You’re beautiful

I understand 
You’re never gonna feel the pain of this life again
I feel you’re barely holding on, so take my hand
You’re always gonna be my beautiful
You’re beautiful.

Solo

e|------------------------------------------------------------------------------|
b|-8/--16--14/--19---16--14/--19--16-17--17b19--16--17--17br19\-----------------|
g|------------------------------------------------------------------------------|
D|------------------------------------------------------------------------------|
A|------------------------------------------------------------------------------|
E|------------------------------------------------------------------------------|

Bridge

e|----0----------0----------0--------|
b|----0----------0----------0--------|
g|----6----------4----------2--------| 
D|----6---x8-----4---x8-----2--------|
A|----4----------2----------0--------|
E|----x----------x----------x--------|

With every step I’m here to stay
I’m gonna make it better in the end.

e|---19b21---16~--pick slide down------|
b|-------------------------------------|
g|-------------------------------------| 
D|-------------------------------------|
A|-------------------------------------|
E|-------------------------------------|

Repeat Chorus

Outro:

e|----x----------x---------|
b|----x----------x---------|
g|----9----------9---------|    end
D|----9--x8------9--x5-----|
A|----7----------0---------|
E|----x----------x---------|
pm........................


Listen to the song here: https://www.youtube.com/watch?v=lRuaonfsQS8
Suportahan po natin ang lahat ng pinoy bands. Mabuhay !!!
Maraming Salamat Po ! 

************************************

| /   slide up
| \   slide down
| ~   vibrato
| x   Mute note
| b   Bend
| .   Palm Mute

************************************

            
            
Suggest correction
Creating personal tab
Creating personal tab
You can edit any tab online and save it as your Personal.

You can edit, replace or remove any tab part or add personal notes – all changes will be seen only by you.

Personal tabs can be accessed anytime from any device, even offline.
Learn more »
Give kudos to tab author, rate the tab!
1 2 3 4 5
comments
print report bad tab
guest
You may want to rate the tab now too:
select rating
Wanna post a correction for this tab? Suggest correction