Oops, an error
Loading. Please wait.

Avantasia Tab

version 1
version 1

Whole song

Interactive

7,191 views 9 this week
no commentswrite comment
1 2 3 4 5
please rate
add to favorites
launch autoscroll
font size
0
reset
how to read this tab
guitar tuner
Autoscroll
slow
fast
+/-
esc
set tempo
stop
Help us to improve Ultimate-Guitar.com Take our survey!
×
Album: Tobias Sammet's Avantasia The metal Opera
Songtitle: Avantasia
Tab by: Jonas Jonsson (Kulgan)
Corrections, Comments and so on can be sent to:
Vandroiy@hotmail.com
Tune to Eb

Intro Riff

|-------------------------|------------------------|
|-------------------------|------------------------|
|-------------------------|---------7--------------|
|-7----3----5----3---2----|----7----7----5----3----|
|-7----3----5----3---2----|----7----5----5----3----|
|-5----1----3----1---0----|----5---------3----1----|


Bass play....Help me out Counter!!


Caught in the 'now and here'....
|----------------------|-------------------------
|---------------(11)---|-----(9)-----------------
|-5----8---------10----|-5----8----3-------------
|-5----6----8----8-----|-5----6----3-------------
|-3---------6----------|-3---------1-------------
|----------------------|-------------------------


Use your mind!...
2x Palm mute
|-----------------------------------------------
|-----------------------------------------------
|-8-5---10-7---12-8----10-7---8-5---5-----------
|-----6------8------10------8-----6-------------
|-----------------------------------------------
|-----------------------------------------------



...be the toll....
|------------------------------------------------
|------------------------------------------------
|-5--3-------8--3--3--5--------------------------
|-5--3--6----8--3--3--5--------------------------
|-3--1--6----6--1--1--3--------------------------
|-------4----------------------------------------

Chorus
We are the power inside.....
|-------------|--------------|------------------------
|-------------|--------------|---------------(6)------
|-7----3--5---|---7----3--5--|--7----3--5-----5--5----
|-7----3--5---|---7----3--5--|--7----3--5--3--3--5----
|-5----1--3---|---5----1--3--|--5----1--3--3-----3----
|-------------|--------------|-------------1----------


Solo riff
|-------------------------------------------------
|-----------------------------------(6)-----------
|---------------------7--------------5-5----------
|-7--5--7--5----3--7--7--5----7-5-3--3-5----------
|-7--5--7--5----3--7--5--5----7-5-3----3----------
|-5--3--5--3----1--5-----3----5-3-1---------------


Solo: I don't get this 100right,
and a solo that's wrong is no fun.... :)
Feel free to send me the solo!! :-)
|-----------------------------------------------
|-----------------------------------------------
|-----------------------------------------------
|-----------------------------------------------
|-----------------------------------------------
|-----------------------------------------------
Suggest correction
Give kudos to tab author, rate the tab!
1 2 3 4 5
comments
print report bad tab
guest
You may want to rate the tab now too:
select rating
Wanna post a correction for this tab? Suggest correction