Oops, an error
Loading. Please wait.

Devil In The Belfry Tab

version 1
version 1

Whole song

Interactive

4,006 views 1 this week
4 commentsread comments
1 2 3 4 5
please rate
add to favorites
launch autoscroll
font size
0
reset
how to read this tab
guitar tuner
Autoscroll
slow
fast
+/-
esc
set tempo
stop
Help us to improve Ultimate-Guitar.com Take our survey!
×
Author
#----------------------------------PLEASE NOTE---------------------------------#
#This file is the author's own work and represents their interpretation of the #
#song. You may only use this file for private study, scholarship, or research. #
#------------------------------------------------------------------------------##

DEVIL IN THE BELFRY
As recorded by Avantasia
(From the 2008 Album THE SCARECROW)

Words and Music by Tobias Sammet
Transcribed by Ivan - (peekaboo104@hotmail.com)

Gtr I (Eb Ab Db Gb Bb Eb) - 'Untitled'
Gtr II (Eb Ab Db Gb Bb Eb) - 'Untitled'
Gtr III (Eb Ab Db Gb Bb Eb) - 'Untitled'

Intro
Q=100
4/4
Gtr I
W Q. E E. E. E
|------------------------|--------------------|
|------------------------|--------------------|
|------------------------|--------------------|
|--4---------------------|--2-----------------|
|--4---------------------|--2-----------------|
|--2---------------------|--0-----2--4--2---0-|
|
| Gtr II
| ~~~ ~~~
| Q. E E. E. E Q. E Q. E
|-14----16-16b17-16--14--|-16-----------------|
|------------------------|-------14-14-----14-|
|------------------------|--------------------|
|------------------------|--------------------|
|------------------------|--------------------|
|------------------------|--------------------|


H H W
|-----------------------------------|---------------------------------|
|-----------------------------------|---------------------------------|
|--7--------------------------------|--6------------------------------|
|--7--------------7-----------------|--6------------------------------|
|--5--------------4-----------------|--4------------------------------|
|--5--------------------------------|---------------------------------|
|
| ~~~~ ~~~ ~~~~
| |--3--| |--3--|
| Q +E E E. E. S S S Q S S S S +S +H
|-----------------------------------|---------------------------------|
|-14b15--(14)-17-17b19-17--15h17p15-|-14h=15p14p12-14-(14)b15r(14)----|
|-----------------------------------|---------------------------------|
|-----------------------------------|---------------------------------|
|-----------------------------------|---------------------------------|
|-----------------------------------|---------------------------------|


W Q. E E. E. E
|------------------------|-----------------------|
|------------------------|-----------------------|
|------------------------|-----------------------|
|--4---------------------|-----------------------|
|--4---------------------|--7--------------------|
|--2---------------------|--4-----4--7-----5---4-|
|
| ~~~
| Q. E E. E. E Q. E E. E. E
|-14----16-16b17-16--14--|-16----17-17b19-17--16-|
|------------------------|-----------------------|
|------------------------|-----------------------|
|------------------------|-----------------------|
|------------------------|-----------------------|
|------------------------|-----------------------|
|
| Gtr III
| ~~~
| Q. E E. E. E Q. E E. E. E
|------------------------|-----------------------|
|-15----17-17b19-17--15--|-17----19-19b21-19--17-|
|------------------------|-----------------------|
|------------------------|-----------------------|
|------------------------|-----------------------|
|------------------------|-----------------------|


W H H
|-------------------------------------|---------------------------------|
|-------------------------------------|---------------------------------|
|--4----------------------------------|--7------------------------------|
|--4----------------------------------|--7-------------------------7----|
|--2----------------------------------|--5-------------------------4----|
|-------------------------------------|---------------------------------|
|
| ~~~~ ~~~~ ~~
| |--3--| |--3--|
| S S S S S +H E E E E +Q +S +T T H
|-17p16p14------------------/14-14-16-|-16b17==(16)--(16)r(16)p14-16----|
|----------17-17b19-(17)--------------|---------------------------------|
|-------------------------------------|---------------------------------|
|-------------------------------------|---------------------------------|
|-------------------------------------|---------------------------------|
|-------------------------------------|---------------------------------|
|
| ~~~~ ~~~~ ~~
| |--3--| |--3--|
| S S S S S +H E E E E +Q +S +T T H
|-------------------------------------|---------------------------------|
|-19p17---------------------/15-15-17-|-17b19==(17)--(17)r(17)p15-17----|
|-------16-19-19b20-(19)--------------|---------------------------------|
|-------------------------------------|---------------------------------|
|-------------------------------------|---------------------------------|
|-------------------------------------|---------------------------------|


H H
|------------------------------------------------------------------------||
|------------------------------------------------------------------------||
|---7--------------------------------------------------------------------||
|---7---------------------------------7----------------------------------||
|---5---------------------------------4----------------------------------||
|------------------------------------------------------------------------||
|
| ~~~
| |------------6-------------|
| E E. +S S S S S S T T T T T T T T E.
|-/21-21b22-(21)------(19)---19-21-19---17-------------------------------||
|------------------------------------------21-19-17----------------------||
|---------------------------------------------------19-18-16-------------||
|------------------------------------------------------------19-18-16----||
|------------------------------------------------------------------------||
|------------------------------------------------------------------------||
|
| E E. +T T E H
|-/17-17b18-(17)-(15)----------------------------------------------------||
|------------------------------------------------------------------------||
|------------------------------------------------------------------------||
|------------------------------------------------------------------------||
|------------------------------------------------------------------------||
|------------------------------------------------------------------------||


1.
PM--------| PM--------| ~~~~~
|----6----| |----6----|
E S S S S S S E E S S S S S S E Q Q Q Q
||----------------------------------|------------------------||
||o---------------------------------|-----------------------o||
||----------------------------------|------------------------||
||----------------------------------|------------------------||
||o-4-------------2-4-------------2-|--5------4---4------2--o||
||--2-2-2-2-2-2-2-0-2-2-2-2-2-2-2-0-|------------------------||
|
| ~~~~~
| W Q Q Q Q
||----------------------------------|-21b22--21--19b21--19---||
||o---------------------------------|-----------------------o||
||----------------------------------|------------------------||
||----------------------------------|------------------------||
||o---------------------------------|-----------------------o||
||----------------------------------|------------------------||


2.
Q Q Q Q
|-------------------------------------------------------------------------|
|-------------------------------------------------------------------------|
|-------------------------------------------------------------------------|
|--------------------------------------4-----------------3----------------|
|--5-----------------2----------------------------------------------------|
|-------------------------------------------------------------------------|
|
| |------6-------| |------6-------| |------6-------| |------6-------|
| S S S S S S S S S S S S S S S S S S S S S S S S
|-------------------------------------------------------------------------|
|----------------------------------------------------12-14-12-14-15-14-15-|
|-------------------11----11-13-11-13-14-13-14-16-14----------------------|
|-12-11-12-14-12-14----14-------------------------------------------------|
|-------------------------------------------------------------------------|
|-------------------------------------------------------------------------|


Q Q Q Q
|---------------------------------------------------------------------------------||
|---------------------------------------------------------------------------------||
|---------------------------------------------------------------------------------||
|---------------------------------------------------------------------------------||
|--5-----------------2-----------------5-----------------4------------------------||
|---------------------------------------------------------------------------------||
|
| |------6-------| |------6-------| |------6-------|
| S S S S S S S S S S S S S S S S S S T T T T T T T T
|-12----12-14-12-14-12-14-16-14-16-17-16-14-12------------------------------------||
|----15----------------------------------------15-14-12---------------------------||
|-------------------------------------------------------14-13-11------------------||
|----------------------------------------------------------------14-13-11---------||
|-------------------------------------------------------------------------14-12---||
|---------------------------------------------------------------------------------||


1st Verse
W E E. E. E +E +E +E E E. E. E Q. E E. E. E Q.
|-----------|-5-4-----------------------|-----------------|-5-4-------------|
|-----------|------5--------------------|-----------------|------5----------|
|-----------|---------6-(6)b7==(6)r(6)--|-----------------|---------6-------|
|-----------|---------------------------|-7-6--7--6-------|-----------4-----|
|-----------|---------------------------|-----------4-----|-----------------|
|--2--------|---------------------------|-----------------|-----------------|
|
| W W W W
|-----------|---------------------------|-----------------|-----------------|
|-----------|---------------------------|-----------------|-----------------|
|-----------|---------------------------|-----------------|-----------------|
|-----------|---------------------------|-----------------|-----------------|
|-----------|---------------------------|-----------------|-----------------|
|-14--------|---------------------------|-----------------|-----------------|


|-|
|-|
|-|
|-|
|-|
|-|


PM---------------------------------------------------------------
T T T T T T T T T T T T T T T T T T T T T T T T T T T T T T T T
|-----------------------------------------------------------------|
|-----------------------------------------------------------------|
|-----------------------------------------------------------------|
|-----------------------------------------------------------------|
|---------------------------------2-2-2-2-2-2-2-2-2-2-2-2-2-2-2-2-|
|-0-0-0-0-0-0-0-0-0-0-0-0-0-0-0-0---------------------------------|


-------------------------------------------------------------|
T T T T T T T T T T T T T T T T T T T T T T T T T T T T T T T T
|--------------------------------------------------------------------|
|--------------------------------------------------------------------|
|--------------------------------------------------------------------|
|--------------------------------------------------------------------|
|---------------------------------5-5-5-5-5-5-5-5-5-5-5-5-5-5-5-5----|
|-0-0-0-0-0-0-0-0-0-0-0-0-0-0-0-0------------------------------------|


|-3-|
H H H H Q Q H Q Q Q Q Q
|-----------|-----------|------------|-------------|
|-----------|-----------|------------|-------------|
|-----------|-5---------|------------|-------------|
|-7----3----|-5----5----|-7--7--3----|-5--5--5-5-5-|
|-7----3----|-3----5----|-7--7--3----|-5--5--5-5-5-|
|-5----1----|------3----|-5--5--1----|-3--3--3-3-3-|


H H H H Q Q Q Q E S S +Q E E E E
|-----------|-----------|---------------|---------------------|
|-----------|-----------|---------------|---------------------|
|-----------|-5---------|-------10--10--|-9-10-9-(9)--9-9-9---|
|-7----3----|-5----5----|-7--7--10--10--|-9-10-9-(9)--9-9-9---|
|-7----3----|-3----5----|-7--7---8---8--|-7--8-7-(7)--7-7-7-2-|
|-5----1----|------3----|-5--5----------|-------------------0-|


PM--------| PM--------| ~
|----6----| |----6----|
E S S S S S S E E S S S S S S E Q Q Q Q
|---------------------------------|-------------|
|---------------------------------|-------------|
|---------------------------------|-------------|
|---------------------------------|-------------|
|-4-------------2-4-------------2-|-5--4--4--2--|
|-2-2-2-2-2-2-2-0-2-2-2-2-2-2-2-0-|-------------|


PM--------| PM--------|
|----6----| |----6----|
E S S S S S S E E S S S S S S E Q Q Q Q Q Q Q Q
|---------------------------------|-------------|-------------|
|---------------------------------|-------------|-------------|
|---------------------------------|-------------|-------------|
|---------------------------------|-------4--3--|-------------|
|-4-------------2-4-------------2-|-5--2--------|-5--2--5--4--|
|-2-2-2-2-2-2-2-0-2-2-2-2-2-2-2-0-|-------------|-------------|


~~ ~~
Q. E E. E. E Q. E E. E. E
|-----------------|------------------|
|-7----7-7--9--10-|-9----9-9--10--12-|
|-8----8-8--9--11-|-9----9-9--11--13-|
|-----------------|------------------|
|-----------------|------------------|
|-----------------|------------------|


~~~ ~~~ ~~~~~~~
Q. E E. E. E Q. E E +Q E
|---------------------|------------------------|
|-10----10-10--12--14-|-14----/15-12-(12)--/14-|
|-11----11-11--13--14-|-14----/16-13-(13)--/14-|
|---------------------|------------------------|
|---------------------|------------------------|
|---------------------|------------------------|


~ ~~~
H E. E. E Q. E E. E. E
|------------------|---------------------|
|-7----/14--12--10-|-12----14-15--14--12-|
|-8----/14--13--11-|-13----14-16--14--13-|
|------------------|---------------------|
|------------------|---------------------|
|------------------|---------------------|


~~~ ~~ ~~~~~~~
|--3--|
Q. E E. E. E Q E E +Q S S S e
|--------------------|------------------------------||
|-15----x-15--17--15-|-14--/15-14-(14)--14p12-------||
|-16----x-16--18--16-|-14--/16-14-(14)--------14s11-||
|--------------------|------------------------------||
|--------------------|------------------------------||
|--------------------|------------------------------||


T T T T T T T T T T T T T T T T T T T T T T T T T T T T T T T T
|-17p15p14-------22p17-21p17-------21p17-19p17-------22p17-21p17-------21p17-19p17-------21p17---|
|-------------22----------------19----------------19----------------19----------------19---------|
|----------18----------------18----------------18----------------18----------------18------------|
|------------------------------------------------------------------------------------------------|
|------------------------------------------------------------------------------------------------|
|------------------------------------------------------------------------------------------------|


|------6-------| |--3--| |------6-------| |------6------|
S S S S S S S S S S S S S S S S S S S S S e
|-------------------16-17-19-------------------------16-17-19---21----|
|----------15-17-19-17-19-21----------15-17-19-17-19-17-19-21-x-22----|
|-14-16-18-16-18-19----------14-16-18-16-18-19-18-19------------------|
|-15-17-19-------------------15-17-18---------------------------------|
|---------------------------------------------------------------------|
|---------------------------------------------------------------------|


T T T T T T T T T T T T T T T T T T T T T T T T T T T T T T T T
|-17----------17-22p17-21p17-------21p17-19p17-------22p17-21p17-------21p17-19p17-------21p17---|
|----20p19----------------------19----------------19----------------19----------------19---------|
|----------18----------------18----------------18----------------18----------------18------------|
|------------------------------------------------------------------------------------------------|
|------------------------------------------------------------------------------------------------|
|------------------------------------------------------------------------------------------------|


Duration Legend
---------------
W - whole; H - half; Q - quarter; E - 8th; S - 16th; T - 32nd; X - 64th; a - acciaccatura
+ - note tied to previous; . - note dotted; .. - note double dotted
Uncapitalized letters represent notes that are staccato (1/2 duration)
Irregular groupings are notated above the duration line
Duration letters will always appear directly above the note/fret number it represents the
duration for. Duration letters with no fret number below them represent rests. Multi-
bar rests are notated in the form Wxn, where n is the number of bars to rest for. Low
melody durations appear below the staff

Tablature Legend
----------------
h - hammer-on
p - pull-off
b - bend
pb - pre-bend
r - bend release (if no number after the r, then release immediately)
/\ - slide into or out of (from/to "nowhere")
s - legato slide
S - shift slide
 - natural harmonic
[n] - artificial harmonic
n(n) - tapped harmonic
~ - vibrato
tr - trill
T - tap
TP - trem. picking
PM - palm muting
\n/ - tremolo bar dip; n = amount to dip
\n - tremolo bar down
n/ - tremolo bar up
/n\ - tremolo bar inverted dip
= - hold bend; also acts as connecting device for hammers/pulls
<> - volume swell (louder/softer)
x - on rhythm slash represents muted slash
o - on rhythm slash represents single note slash

Misc Legend
-----------
| - bar
|| - double bar
||o - repeat start
o|| - repeat end
*| - double bar (ending)
: - bar (freetime)
$ - Segno
& - Coda
Tempo markers -  = BPM(8/16=s8/s16), where s8 = swing 8ths, s16 = swing 16ths


***************************************************************************************
* Generated using Power Tab Editor by Brad Larsen - http://powertab.guitarnetwork.org *
***************************************************************************************
Suggest correction
What's this?
You can suggest a correction to this tab. Community and Mods will review your correction and vote to approve or reject it.
comments
We did not receive enough feedback on this tab! Please rate:
print report bad tab
1 2 3 4 5
4 comments total. Showing first comments.
0 reply
Invisible God 106 wrote on September 10 2008, 09:11 pm

THIS WAS A WORK IN PROGRESS!!! I posted on the Avantasia forum to help and dude and look at this...........UG should stop accepting every single tab they get!

0 reply
07bevanm 98 wrote on February 16 2009, 10:36 pm

this is good for a work in progress
youre almost there and what youve got is pretty much bang on from what i can hear

0 reply
chrward 11 wrote on January 10 2015, 03:30 pm

Can you give a breakdown of the effects used? I like the section just before the solo especially.

guest
You may want to rate the tab now too:
select rating
Please do not post tabs as comments. Select "correction" instead!