Oops, an error
Loading. Please wait.

Farewell Tab

version 1
version 1

Whole song

Interactive

9,196 views 3 this week
no commentswrite comment
1 2 3 4 5
please rate
add to favorites
launch autoscroll
font size
0
reset
how to read this tab
guitar tuner
Autoscroll
slow
fast
+/-
esc
set tempo
stop
Help us to improve Ultimate-Guitar.com Take our survey!
×
Song: Farewell
from: Avantasia - The metal opera


Author/Artist:Avantasia
Title: Farewell
Album: Avantasia - The metal opera
Transcribed by: Jonas Jonsson (Kulgan - king of the nordic twilight)
Email: Vandroiy@hotmail.com

well it's not 100Xorrect so feel free to send me corrections.
It's not complete either but i think you can figure
the rest out by yourself I will send the complete
version later when it's finnished.

Tune down 1/2 step

riff 1
--------------------------|----------------------------|---
--------------------------|----------------------------|---
---------------5----------|-----------------7------9---|---
-7------3------5------5---|---7------3------7------9---|---
-7------3------3------5---|---7------3------5------7---|---
-5------1-------------3---|---5------1-----------------|---


--------------------------|-----------------------------------
--------------------------|-----------------------------------
---------------5----------|------------------------7------9---
-7------3------5------3---|---7------5------3------7------9---
-7------3------3------3---|---7------5------3------5------7---
-5------1-------------5---|---5------3------1-----------------

Acoustic guitar
play 3 times
                          end first
---------5---------------|--5-----------------------------
---------5---------------|--5-----------------------------
-----------5-------------|--5-----------------------------
-----7------7------------|--7-----------------------------
---7---------------------|--7-----------------------------
-5-----------------------|--5-----------------------------


Days had come, winters had gone   and we gamboled like siblings in paradise
I was your knight holding you tight as a brother when I saw you crying eyes

-5-----|---1------|---------|-3------|-0---------1---------
---5---|-----1----|--6------|---3----|---1---------1-------
-----5-|-------2--|----7----|-----4--|-----2---------2-----
-7-----|---3------|------7--|-5------|-2---------3---------
-------|----------|--5------|--------|---------------------
-------|----------|---------|--------|---------------------

-------5-----------5---------------------------------------
-------5-----------5---------------------------------------
-----5---5-------5---5-------------------------------------
---7-------7---7-------7-----------------------------------
-0-----------0---------------------------------------------
-----------------------------------------------------------



time went by.....

-------7h8p7----------7h8p7------------1----------
-----8-------8------8-------8--------1---1--------
---7--------------7----------------2-------2------
-5--------------5----------------3----------------
--------------------------------------------------
--------------------------------------------------

-------0-------------5---------5------------------
-----0---0-----------5---------5------------------
---1-------1-------5---5-------5------------------
-2---------------7-------7-----7------------------
---------------0---------------0------------------
--------------------------------------------------

staring up to the clouds above....
---------14----------------8----------------14-----------------8------
------15----15----------10---10----------15----15-----------10---10---
---14----------14-----9---------9-----14----------14------9---------9-
-0----------------------------------0---------------------------------
--------------------0---------------------------------0---------------
----------------------------------------------------------------------

hoping the saints could....

-------0------------------------------3------------0-----------------
-0---0---0------------5-------------0---0----------1-----------------
---1-------1--------5---5---------0-------0-----0--------------------
------------------7-------7-------------------2----------------------
----------------0---------------------------3------------------------
-------------------------------3-------------------------------------

holding the key to the alley of dreams still in hands

---------------------------------------------------------------------
---------------------------------------------------------------------
-------------7---9---------------------------------------------------
-7---5---3---7---9--------------------------------------3---5--------
-7---5---3---5---7--------------------------------------3---5--------
-5---3---1----------------------------------------------1---3--------


time telling me...                    go for another...
------------------------------------|--------------------------------
------------------------------------|--------------------------------
-5---------------------5------------|--5-----------------------------
-5------5------7---3---5---5--------|--5------5---3---5---7---5------
-3------5------7---3---3---5--------|--3------5---3---5---7---5------
--------3------5---1-------3--------|---------3---1---3---5---3------

time telling me...
------------------------------------|--------------------------------
------------------------------------|--------------------------------
-5---------------------5------------|-5------------------------------
-5------5------7---3---5---5--------|-5---5---3---5---7--------------
-3------5------7---3---3---5--------|-3---5---3---5---7--------------
--------3------5---1-------3--------|-----3---1---3---5--------------

(now the acoustic part comes again...)
Suggest correction
What's this?
You can suggest a correction to this tab. Community and Mods will review your correction and vote to approve or reject it.
comments
We did not receive enough feedback on this tab! Please rate:
print report bad tab
1 2 3 4 5
guest
You may want to rate the tab now too:
select rating
Please do not post tabs as comments. Select "correction" instead!