Oops, an error
Loading. Please wait.

Seduction Of Decay tab

379 views 1 this week
no commentswrite comment
1 2 3 4 5
3 more votes to show rating
add to favorites
×
Save as Personal and add changes to this tab that will be seen only by you. Learn more ›
×
You can save this tab as Personal to edit and correct it or add notes. All changes will be seen only by you. Learn more »
launch autoscroll
font size
0
reset
how to read this tab
guitar tuner
edit
Autoscroll
slow
fast
+/-
esc
set tempo
stop
-------------------------------------------------------------------------------
                             Seduction of Decay - Avantasia
-------------------------------------------------------------------------------
Tabbed by: guitarhodgie
E-mail:

Tuning: Drop D

This is the tab for the lead guitar and was done entirely by ear so parts
of the song may not be 100% correct

e|---------------------------------------------------------------------------|
B|---------------------------------------------------------------------------|
G|---------------------------------------------------------------------------|
D|-------------------------------------------7-5h7p5-4-8-7-5-4---------------|
A|------5-5-3-3-----6-6-6/8\6-5--5-5-3-3-----------------------6-------------|
D|-\--0---------0-0----------------------0-0---------------------------------|

e|---------------------------------------------------------------------------|
B|---------------------------------------------------------------------------|
G|---------------------------------------------------------------------------|
D|-----------------------------------------------5---------------------------|
A|-----5-5-3-3-----6-6-6/8\6-5--5-5-3-3-----5-3----3-------------------------|
D|---0---------0-0----------------------0-0----------------------------------|

e|---------------------------------------------------------------------------|
B|---------------------------------------------------------------------------|
G|---------------------------------------------------------------------------|
D|-------------------------------------------7-5h7p5-4-8-7-5-4---------------|
A|------5-5-3-3-----6-6-6/8\6-5--5-5-3-3-----------------------6-5-3---------|
D|----0---------0-0----------------------0-0---------------------------------|

e|---------------------------------------------------------------------------|
B|---------------------------------------------------------------------------|
G|---------------------------------------------------------------------------|
D|---------------------------4---------------3-1---5-------------------------|
A|-----5-5-3-3-----6-6-6/8\6----5-5-3-3--------------3--0--------------------|
D|---0---------0-0----------------------0-0-------------0--------------------|

e|---------------------------------------------------------------------------|
B|---------------------------------------------------------------------------|
G|---------------------------------------------------------------------------|
D|--------------------------------------------------7-5h7p5-4-8-7-5-4--------|
A|-0-0--0-0----5-5-3-3-----6-6-6/8\6-5--5-5-3-3-----------------------6-5-3-0|
D|-0-0--0-0--0---------0-0----------------------0-0-------------------------0|

e|---------------------------------------------------------------------------|
B|---------------------------------------------------------------------------|
G|---------------------------------------------------------------------------|
D|---------------------------------------------------------------------------|
A|-0-0--0-0--0-0--5-4---4-3--------------------------------------------------|
D|-0-0--0-0--0-0------0-----0-1----------------------------------------------|

e|---------------------------------------------------------------------------|
B|---------------------------------------------------------------------------|
G|---------------------------------------------------------------------------|
D|-------------------------------------------7-5h7p5-4-8-7-5-4---------------|
A|------5-5-3-3-----6-6-6/8\6-5--5-5-3-3-----------------------6-------------|
D|----0---------0-0----------------------0-0---------------------------------|

e|---------------------------------------------------------------------------|
B|---------------------------------------------------------------------------|
G|---------------------------------------------------------------------------|
D|-----------------------------------------------5---------------------------|
A|-----5-5-3-3-----6-6-6/8\6-5--5-5-3-3-----5-3----3-------------------------|
D|---0---------0-0----------------------0-0----------------------------------|

e|---------------------------------------------------------------------------|
B|---------------------------------------------------------------------------|
G|-----3-----------------------------3----------3----------------------------|
D|---3--------6-------5------3---5-----3------3--------6--------8--------7---|
A|-1--------3-------1------1---1---1--------1--------6--------5---5----3---3-|
D|--------3-------1------1-------------------------6--------5--------3-------|

e|---------------------------------------------------------------------------|
B|---------------------------------------------------------------------------|
G|----------3-----3---3-----3-3----------------------------------------------|
D|-----3----3-----3---3-----3-3----------------------------------------------|
A|---1------1-1-1-1-1-1-1-1-1-1-1-1------------------------------------------|
D|-1-------------------------------------------------------------------------|

e|---------------------------------------------------------------------------|
B|---------------------------------------------------------------------------|
G|---------------------------------------------------------------------------|
D|-------------------------------------------7-5h7p5-4-8-7-5-4---------------|
A|------5-5-3-3-----6-6-6/8\6-5--5-5-3-3-----------------------6-------------|
D|-\--0---------0-0----------------------0-0---------------------------------|

e|---------------------------------------------------------------------------|
B|---------------------------------------------------------------------------|
G|---------------------------------------------------------------------------|
D|-----------------------------------------------5---------------------------|
A|-----5-5-3-3-----6-6-6/8\6-5--5-5-3-3-----5-3----3-------------------------|
D|---0---------0-0----------------------0-0----------------------------------|

e|---------------------------------------------------------------------------|
B|---------------------------------------------------------------------------|
G|---------------------------------------------------------------------------|
D|---5------8-7h8p7p5--------------------------5-7-8-8\7-7\5-5\3----3-1-5----|
A|-5-3-3-------------8-6-5--------------5-6--8---------------------------3--0|
D|-5---3-------------------8-3-5--5-7-8----------------------------\--------0|

e|---------------------------------------------------------------------------|
B|---------------------------------------------------------------------------|
G|---------------------------------------------------------------------------|
D|--------------------------------------------------7-5h7p5-4-8-7-5-4--------|
A|-0-0--0-0----5-5-3-3-----6-6-6/8\6-5--5-5-3-3-----------------------6-5-3-0|
D|-0-0--0-0--0---------0-0----------------------0-0-------------------------0|

e|---------------------------------------------------------------------------|
B|---------------------------------------------------------------------------|
G|---------------------------------------------------------------------------|
D|---------------------------------------------------------------------------|
A|-0-0--0-0--0-0--5-4---4-3--------------------------------------------------|
D|-0-0--0-0--0-0------0-----0-1----------------------------------------------|

e|---------------------------------------------------------------------------|
B|---------------------------------------------------------------------------|
G|---------------------------------------------------------------------------|
D|-------------------------------------------7-5h7p5-4-8-7-5-4---------------|
A|------5-5-3-3-----6-6-6/8\6-5--5-5-3-3-----------------------6-------------|
D|----0---------0-0----------------------0-0---------------------------------|

e|---------------------------------------------------------------------------|
B|---------------------------------------------------------------------------|
G|---------------------------------------------------------------------------|
D|-----------------------------------------------5---------------------------|
A|-----5-5-3-3-----6-6-6/8\6-5--5-5-3-3-----5-3----3-------------------------|
D|---0---------0-0----------------------0-0----------------------------------|

e|---------------------------------------------------------------------------|
B|---------------------------------------------------------------------------|
G|-----3-----------------------------3----------3----------------------------|
D|---3--------6-------5------3---5-----3------3--------6--------8--------7---|
A|-1--------3-------1------1---1---1--------1--------6--------5---5----3---3-|
D|--------3-------1------1-------------------------6--------5--------3-------|

e|---------------------------------------------------------------------------|
B|---------------------------------------------------------------------------|
G|----------3-----3---3-----3-3----------------------------------------------|
D|-----3----3-----3---3-----3-3----------------------------------------------|
A|---1------1-1-1-1-1-1-1-1-1-1-1-1------------------------------------------|
D|-1-------------------------------------------------------------------------|

e|---------------------------------------------------------------------------|
B|---------------------------------------------------------------------------|
G|---------------------------------------------------------------------------|
D|-------------------------------------------7-5h7p5-4-8-7-5-4---------------|
A|------5-5-3-3-----6-6-6/8\6-5--5-5-3-3-----------------------6-------------|
D|-\--0---------0-0----------------------0-0---------------------------------|

e|---------------------------------------------------------------------------|
B|---------------------------------------------------------------------------|
G|---------------------------------------------------------------------------|
D|-----------------------------------------------5---------------------------|
A|-----5-5-3-3-----6-6-6/8\6-5--5-5-3-3-----5-3----3-------------------------|
D|---0---------0-0----------------------0-0----------------------------------|

e|---------------------------------------------------------------------------|
B|---------------------------------------------------------------------------|
G|---------------------------------------------------------------------------|
D|---5------8-7h8p7p5--------------------------5-7-8-8\7-7\5-5\3----3-1-5----|
A|-5-3-3-------------8-6-5--------------5-6--8---------------------------3--0|
D|-5---3-------------------8-3-5--5-7-8----------------------------\--------0|

Clean
e|---------------------------------------------------------------------------|
B|---------------------------------------------------------------------------|
G|----5-7----5-7----5-7----5-7----5-7-----5-7----5-7----5-7----5-7----5-7----|
D|--7------7------7------7------7-------7------7------7------7------7--------|
A|---------------------------------------------------------------------------|
D|-0----------------------------------0--------------------------------------|

e|---------------------------------------------------------6-----------------|
B|-----------------------------------------------------------9----6----------|
G|-----5-7-7-5-7-----5-7-7-5-7-----5-7-7-5-7-8-7----8-7------------8----7-8--|
D|-7-7-----------7-7-----------7-7----------------6-------6------6-----6-----|
A|---------------------------------------------------------------------------|
D|-----------------------------------------------6-------6------6-----6------|

e|---------------------------------------------------------6-----------------|
B|-----------------------------------------------------------9----6----------|
G|-----5-7-7-5-7-----5-7-7-5-7-----5-7-7-5-7-8-7----8-7------------8----7-8--|
D|-7-7-----------7-7-----------7-7----------------6-------6------6-----6-----|
A|---------------------------------------------------------------------------|
D|-----------------------------------------------6-------6------6-----6------|

e|---------------------------------------------------------------------------|
B|---------------------------------------------------------------------------|
G|----8-7-----8-7-----8-7-----7-8-----8-7-----8-7-----8-7-----7-8------------|
D|--8-------8-------8-------8-------8-------8-------8-------8----------------|
A|---------------------------------------------------------------------------|
D|-8------8-------8-------8--------6-------6-------6-------6-----------------|

e|---------------------------------------------------------------------------|
B|---------------------------------------------------------------------------|
G|----8-7-----8-7-----8-7-----7-8-----8-7-----8-7-----7-8--------------------|
D|--8-------8-------8-------8-------8-------8-------8------8-----------------|
A|-------------------------------------------------------------9-8-7-6-------|
D|-5------5-------5-------5--------4-------4-------4-------4-----------------|

Solo
e|---------------------------------------------------------------------------|
B|---------------------------------------------------------------------------|
G|-7-5h7-7p5-7-5h7-7p5-7p5--5h7-7p5-7-8--8-8-8-7---5-8-7---5-8-7-10-8-7-8----|
D|------------------------7----------------------8-------8-------------------|
A|---------------------------------------------------------------------------|
D|---------------------------------------------------------------------------|

e|----------------------------------------8------8-10-11-10h11p11p8-10-------|
B|------------------------------7-8-10-11---10-11----------------------------|
G|-7\2-7h8p7p5h7-7--7h8p7p5h7-8----------------------------------------------|
D|---------------------------------------------------------------------------|
A|---------------------------------------------------------------------------|
D|---------------------------------------------------------------------------|


This part is mostly guess work
e|-10b11b10-8-15b16-15b16---15h16p15p13h15-13----------------13-15-16-15-13--|
B|--------------------------------------------16-15-13-15-16-----------------|
G|---------------------------------------------------------------------------|
D|---------------------------------------------------------------------------|
A|---------------------------------------------------------------------------|
D|---------------------------------------------------------------------------|

e|-------18-13h15h16p15p13-----------------18-13h15h16p15p13-----------------|
B|-16-13-------------------16-18-13h15h16--------------------18-13h15h16-----|
G|---------------------------------------------------------------------------|
D|---------------------------------------------------------------------------|
A|---------------------------------------------------------------------------|
D|---------------------------------------------------------------------------|

e|----------------------------------18-13h15h16p15p13------------------------|
B|-------------------16-18-13h15h16-------------------18-13h15h16------------|
G|-19-13h15p13h15-19---------------------------------------------------------|
D|---------------------------------------------------------------------------|
A|---------------------------------------------------------------------------|
D|---------------------------------------------------------------------------|

e|--18-13h15h16p15p13-----------------18-13h15h16p15p13----------------------|
B|--------------------16-18-13h15h16--------------------18-13h15h16-15-------|
G|---------------------------------------------------------------------------|
D|---------------------------------------------------------------------------|
A|---------------------------------------------------------------------------|
D|---------------------------------------------------------------------------|


e|---------------------------------------------------------------------------|
B|---------------------------------------------------------------------------|
G|-7-----5/7-7\5-7-----5/7-7\5-7-----5/7-7\5-7-8--7--------------------------|
D|---------------------------------------------------------------------------|
A|-5-0-0-3/5-5\3-5-0-0-3/5-5\3-5-0-0-3/5-5\3-5-6--5--------------------------|
D|---0-0-----------0-0-----------0-0-----------------------------------------|

e|---------------------------------------------------------------------------|
B|---------------------------------------------------------------------------|
G|-8-----7-----3-----5-----8-----7-----3-----5-----8---7---10-8-7-8----------|
D|---------------------------------------------------------------------------|
A|-6-6-6-5-5-5-1-1-1-3-3-3-6-6-6-5-5-5-1-1-1-3-3-3-6-6-5-5-8--6-5-6----------|
D|---------------------------------------------------------------------------|

e|---------------------------------------------------------------------------|
B|---------------------------------------------------------------------------|
G|-7-----5/7-7\5-7-----5/7-7\5-7-----5/7-7\5-7-8--7--------------------------|
D|---------------------------------------------------------------------------|
A|-5-0-0-3/5-5\3-5-0-0-3/5-5\3-5-0-0-3/5-5\3-5-6--5--------------------------|
D|---0-0-----------0-0-----------0-0-----------------------------------------|
                                                                          *
e|-----------------------------------------------------------------------------|
B|-----------------------------------------------------------------------------|
G|-8-----7-----3-----5-----8-----7-----3-----5-----8---7---10-8-7-8-7--6-5--3-2|
D|-----------------------------------------------------------------------------|
A|-6-6-6-5-5-5-1-1-1-3-3-3-6-6-6-5-5-5-1-1-1-3-3-3-6-6-5-5-8--6-5-6-5--4-3--1-0|
D|-----------------------------------------------------------------------------|

e|----------------------------------------------------------1----------------|
B|---------------------------------------------------------------------------|
G|--------------------------------------------------------3------------------|
D|---------------------------------------------------------------------------|
A|-5--3--8/12-10--13-13--5--3--8/12-10--13-13--3-5-3-1------------1-1--------|
D|-5--3--8/12-10--13-13--5--3--8/12-10--13-13--3-5-3-1------------1-1--------|

e|---------------------------------------------------------------------------|
B|---------------------------------------------------------------------------|
G|---------------------------------------------------------------------------|
D|-------------------------------------------7-5h7p5-4-8-7-5-4---------------|
A|------5-5-3-3-----6-6-6/8\6-5--5-5-3-3-----------------------6-------------|
D|----0---------0-0----------------------0-0---------------------------------|

e|---------------------------------------------------------------------------|
B|---------------------------------------------------------------------------|
G|---------------------------------------------------------------------------|
D|-----------------------------------------------5---------------------------|
A|-----5-5-3-3-----6-6-6/8\6-5--5-5-3-3-----5-3----3-------------------------|
D|---0---------0-0----------------------0-0----------------------------------|

e|---------------------------------------------------------------------------|
B|---------------------------------------------------------------------------|
G|---------------------------------------------------------------------------|
D|---5------8-7h8p7p5--------------------------5-7-8-8\7-7\5-5\3----3-1-5----|
A|-5-3-3-------------8-6-5--------------5-6--8---------------------------3--0|
D|-5---3-------------------8-3-5--5-7-8----------------------------\--------0|

Clean
e|---------------------------------------------------------------------------|
B|---------------------------------------------------------------------------|
G|----5-7----5-7----5-7----5-7----5-7-----5-7----5-7----5-7----5-7----5-7----|
D|--7------7------7------7------7-------7------7------7------7------7--------|
A|---------------------------------------------------------------------------|
D|-0----------------------------------0--------------------------------------|

e|---------------------------------------------------------------------------|
B|---------------------------------------------------------------------------|
G|----5-7----5-7----5-7----5-7----5-7-----5-7----5-7----5-7----5-7----5-7----|
D|--7------7------7------7------7-------7------7------7------7------7--------|
A|---------------------------------------------------------------------------|
D|-0----------------------------------0--------------------------------------|

e|---------------------------------------------------------------------------|
B|---------------------------------------------------------------------------|
G|----5-7----5-7----5-7----5-7----5-7-----5-7----5-7----5-7----5-7----5-7----|
D|--7------7------7------7------7-------7------7------7------7------7--------|
A|---------------------------------------------------------------------------|
D|-0----------------------------------0--------------------------------------|


*
e|---------------------------------------------------------------------------|
B|---------------------------------------------------------------------------|
G|---------------------------------------------------------------------------|
D|-8-7-5---7-5---------------------------------------------------------------|
A|-------8-----8-6-5---------------------------------------------------------|
D|-------------------8-5-----------------------------------------------------|


************************************

| /   slide up
| \   slide down
| h   hammer-on
| p   pull-off
| ~   vibrato
| +   harmonic
| x   Mute note
| b   Bend
| pb  Pre-bend
| br  Bend release
| pbr Pre-bend release
| brb Bend release bend

************************************

            
            
Suggest correction
Creating personal tab
Creating personal tab
You can edit any tab online and save it as your Personal.

You can edit, replace or remove any tab part or add personal notes – all changes will be seen only by you.

Personal tabs can be accessed anytime from any device, even offline.
Learn more »
Give kudos to tab author, rate the tab!
1 2 3 4 5
comments
print report bad tab
guest
You may want to rate the tab now too:
select rating
Wanna post a correction for this tab? Suggest correction