Oops, an error
Loading. Please wait.

Your Love Is Evil Tab

1,572 views 1 this week
no commentswrite comment
1 2 3 4 5
please rate
add to favorites
launch autoscroll
font size
0
reset
how to read this tab
guitar tuner
Autoscroll
slow
fast
+/-
esc
set tempo
stop
Help us to improve Ultimate-Guitar.com Take our survey!
×
Author
Difficulty
intermediate
Artist: Avantasia
Song: Your Love Is Evil
Album: Angels Of Babylon
Tuning: DAFCGB
Tabbed by: shah

Intro
   p.m       p.m p.m p.m p.m p.m p.m p.m     p.m p.m    p.m   pm
D|---------------------------------------------------------------------------|
A|---------------------------------------------------------------------------|
F|---------------------------------------------------------------------------|
C|-------8-------------------------------8-----------7-----10----10*---------| * = pinch harmonic
G|-------8-------------------------------8-----------7-----10----------------|
B|/0-3-7-8---0-0-0-0-3-5-5-3-5-3-2-0-3-7-8---0-0-0-0-7-0-0-10--00------------|


     p.m    p.m p.m p.m p.m p.m p.m p.m     p.m p.m    p.m   pm
D|-------------------------------------------------------------------------|
A|-------------------------------------------------------------------------|
F|-------------------------------------------------------------------------|
C|-------8-------------------------------8-----------7-----5----5-\--------|
G|-------8-------------------------------8-----------7-----5----5-\--------|
B|-0-3-7-8---0-0-0-0-3-5-5-3-5-3-2-0-3-7-8---0-0-0-0-7-0-0-5-00-5-\--------|

Verse:

Day after day I see her smile. If you could see her through my eyes.
You wouldn't call her a little boy's fever dream!

                         p.m p.m p.m       p.m  p.m p.m   p.m p.m        p.m p.m 
D|----------------------------------------------------------------------------------|
A|----------------------------------------------------------------------------------|
F|--7-5h7p5---5-----------------------8-8---------------7---------------------------|
C|----------8---8-7\5--5--------------8-8---------------7------------7-7------------|
G|---------------------5--------------6-6---------------5------------7-7------------|
B|---------------------5-5-5-5-5-5-5--------5-5-5-5-5-5---5-5-5-5-5--7-7-7-7-7-7-7\-|

                                        p.m
D|--------------------------------------------------------------------|
A|--------------------------------------------------------------------|
F|------3-------3--------5-------5----------8-7---8---8-7---8---------|
C|----3-------3--------5-------5-----6------8-7---8---8-7---8---------|
G|--1-------1--------3-------3-------6------6-5---6---8-5---6---------|
B|-----------------------------------6--6-6---------------------------|

Pre Chorus:
  Your eyes are cold Pale are your skin and your lips Pale your desire..
D|---------------------------------------------------------------------------------|
A|---------------------------------------------------------------------------------|
F|---------------------------------------------------------------------------------|
C|-1~----------------3-------------5-----------------3----------1-----1-----1-----1|
G|-1~----------------3-------------5-----------------3----------1-----1-----1-----1|
B|-1~----------------3-------------5-----------------3----------1-1-1-1-1-1-1-1-1-1|


D|-------------------------|
A|-------------------------|
F|-------------------------|
C|-----1-----1-----1-3-----|
G|-----1-----1-----1-3-----|
B|-1-1-1-1-1-1-1-1-1-3-----|


CHORUS (listen for strumming pattern)

        You are the one, day after day      Under your spell and you look away
D|----------------------------------------------------------------------------|
A|----------------------------------------------------------------------------|
F|-3--------------------------------------------------------------------------|
C|-3--------------------------------5---------------------------3----------1--|
G|-1--------------------------------5---------------------------3----------1--|
B|----------------------------------5---------------------------3----------1--|

  (YOU LOOK AWAY).. Your love is evil You are the one, day after day  
D|---------------------------------------------------------------------------|
A|---------------------------------------------------------------------------|
F|---------------------------------3-----------------------------------------|
C|-------------3-------------------3-------------------3---------5-----------|
G|-------------3-------------------1-------------------3---------5-----------|
B|-------------3---------------------------------------3---------5-----------|

   You are the rain... I'm the parade... (I'M THE PARADE)      Though your love is
D|---------------------------------------------------------------------------|
A|---------------------------------------------------------------------------|
F|---------------------------------------------------------------------------|
C|---------------------3-------1---------------------3-----------------------|
G|---------------------3-------1---------------------3-----------------------|
B|---------------------3-------1---------------------3-----------------------|

   evil (not sure abt this...)
D|-------------------------------------------------|
A|-------------------------------------------------|
F|-3-----3-------3-------3-------3-------3-------3-|
C|-------------------------------------------------|
G|----1-1-----1-1-----1-1-----1-1-----1-1-----1-1--|
B|-------------------------------------------------|
End CHORUS

D|------------------------------|
A|------------------------------|
F|-------------------5b7---r5p3-|
C|-5-----1~---------------------|
G|-5-----1~---------------------|
B|-5-----1~---------------------|


Verse 2:
      I feel how u watch my every move        Why do u lie to me and u   Your languidness 
D|---------------------------------------------------------------------------|
A|---------------------------------------------------------------------------|
F|---3--------3-------3-------3------3------3------2------2------3------3----|
C|-----5-------5-------5-------5-------5------5------3------3------3------3--|
G|-5-------5-------5-------5-------5------5------5------5------1------1------|
B|---------------------------------------------------------------------------|

   shining through a crystal wall
e|----------------------------------------|
B|----------------------------------------|
G|---0-------0--------3-2-----2-0-----0---|
D|-----1-------1------------------------4-|
A|-3-------3-------5-------5-------5------|
E|----------------------------------------|

                         p.m p.m p.m       p.m  p.m p.m    p.m p.m       p.m p.m 
D|----------------------------------------------------------------------------------|
A|----------------------------------------------------------------------------------|
F|--7-5-7-5h7p5-----------------------8-8---------------7---------------------------|
C|--------------8-7-5--5--------------8-8---------------7------------7-7------------|
G|---------------------5--------------6-6---------------5------------7-7------------|
B|---------------------5-5-5-5-5-5-5--------5-5-5-5-5-5---5-5-5-5-5--7-7-7-7-7-7-7\-|

                                        p.m
D|--------------------------------------------------------------------|
A|--------------------------------------------------------------------|
F|------3-------3--------5-------5----------8-7---8---8-7---8---------|
C|----3-------3--------5-------5-----6------8-7---8---8-7---8---------|
G|--1-------1--------3-------3-------6------6-5---6---6-5---6---------|
B|-----------------------------------6--6-6---------------------------|

Pre Chorus:
  Your eyes are cold Pale are your skin and your lips Pale your desire..
D|---------------------------------------------------------------------------------|
A|---------------------------------------------------------------------------------|
F|---------------------------------------------------------------------------------|
C|-1~----------------3-------------5-----------------3----------1-----1-----1-----1|
G|-1~----------------3-------------5-----------------3----------1-----1-----1-----1|
B|-1~----------------3-------------5-----------------3----------1-1-1-1-1-1-1-1-1-1|


D|-------------------------|
A|-------------------------|
F|-------------------------|
C|-----1-----1-----1-3-----|
G|-----1-----1-----1-3-----|
B|-1-1-1-1-1-1-1-1-1-3-----|


Repeat CHORUS

Pre solo
D|---------------------------------------------|
A|---------------------------------------------|
F|---------------------------------------------|
C|-5-----1~-----------7------3~----------------|
G|-5-----1~-----------7------3~----------------|
B|-5-----1~-----------7------3~----------------|


SOLO (Guitar1) 2:47
D|-------------------------------------8-10-11-13-13~---11-13-15--13-15-18~--17b18--|
A|-----------------------------8-10-11----------------------------------------------|
F|-8h10p8p7-------------7-8-10------------------------------------------------------|
C|----------10-8-7-8-10-------------------------------------------------------------|
G|----------------------------------------------------------------------------------|
B|----------------------------------------------------------------------------------|

Guitar2 (listen for timing)
D|---------------|  
A|---------------|
F|---------------|
C|---------------|
G|---------------|
B|-1-1-1-1-1-1-1-| 1s for the whole bar


Guitar1 2:51
D|-r17p15--15----------------------------------------------------------------|
A|-------18--18b20~--13-13b15r13---13--11\--10b11----------------------------|
F|-------------------------------12--12------------12-10-8-------------------|
C|--------------------------------------------------------12-10--------------|
G|--------------------------------------------------------------12-10-9-10\--|
B|---------------------------------------------------------------------------|

Guitar2 (listen for timing)
D|---------------|  
A|---------------|
F|---------------|
C|---------------|
G|---------------|
B|-1-1-1-1-1-1-1-| 1s for the whole bar


Guitar1 2:54
D|------------18--17--15-14-----15--14----------------------------------|
A|--------15----15--15-----15-15--15--15-15-13-15-13b15r13------13------|
F|---------------------------------------------------------15-12--12-15-|
C|--10/12---------------------------------------------------------------|
G|----------------------------------------------------------------------|
B|----------------------------------------------------------------------|

Guitar2 (listen for timing)
D|--------------------------------|
A|--------------------------------|
F|--------------------------------|
C|--------------------------------|
G|--------------------------------|
B|--0-0-0-0-0-0-0-0-1-1-1-1-1-1-1-|


Guitar1 2:58
D|------------------15---17-15----18-15--20b22---r20p18--18b20-b20---18-17-18-17-15h17p15|
A|-------------15-----15-------15------18--------------20--------------------------------|
F|---------15----15----------------------------------------------------------------------|
C|-----------15--------------------------------------------------------------------------|
G|-10-/13--------------------------------------------------------------------------------|
B|---------------------------------------------------------------------------------------|

Guitar2 (listen for timing)
 repeat the 3s...
D|-------------------------------------------------------------------------------------|
A|-------------------------------------------------------------------------------------|
F|-------------------------------------------------------------------------------8--7-8|
C|---------------------------------------------------------------------5---------8--7-8|
G|---------------------------------------------------------------------5---------6--5-6|
B|-3-------------------------------------------------------------------5---------------|


Guitar1 3:04
D|--------------------------------------------------------------------------------13---|
A|-16-15h16p15-13--------------------------------------------------------------13----13|
F|----------------15--14--12-----12--10h12p10----------------------------12-14---------|
C|----------------------------15--------------13----12-10-8----------------------------|
G|--------------------------------------------------------------12-13-15---------------|
B|-------------------------------------------------------------------------------------|

Guitar2 (listen for strumming pattern)
D|--------------------------------------------------------------------------|
A|--------------------------------------------------------------------------|
F|------------------------------------8--------------------------10-10-10---|
C|-------------------------------5----8--------------------------10-10-10---|
G|-------------------------------5----6---------------------------8--8--8---|
B|-------------------------------5------------------------------------------|


Guitar1  3:10
D|-15b17~--b17--r15------15----------------------------------------------10--13/15-|
A|------------------15-----16-18-15-16-13-15-11-13-10-11----10--------11-----------|
F|-------------------------------------------------------12----10-12---------------|
C|---------------------------------------------------------------------------------|
G|---------------------------------------------------------------------------------|
B|---------------------------------------------------------------------------------|

Guitar2 (listen for strumming pattern)
D|---------------------------------------------------------------------------|
A|---------------------------------------------------------------------------|
F|---------------------------------------------------------------7-8---------|
C|-5-----5----------------------------------------------------5--7-8---------|
G|-5-----5----------------------------------------------------5--5-6---------|
B|-5-5-5-5----------------------------------------------------5--------------|


Guitar1  3:15
D|-18-20b22-r20-18---18-------------------|
A|----------------20---20-18-15-----------|
F|-------------------------------15-14----|
C|-------------------------------15-15----|
G|-------------------------------13-12----|
B|----------------------------------------|

Guitar2
D|---------------------------------------|
A|---------------------------------------|
F|-------------------------------15-14---|
C|-------------------------------15-15---|
G|-------------------------------13-12---|
B|---------------------------------------|

Repeat CHORUS

D|--------------------|
A|--------------------|
F|--------------------|
C|-5-----1~-----1--0--|
G|-5-----1~-----1--0--|
B|-5-----1~-----1--0--|

End.
Suggest correction
Give kudos to tab author, rate the tab!
1 2 3 4 5
comments
print report bad tab
guest
You may want to rate the tab now too:
select rating
Please do not post tabs as comments. Select "correction" instead!