Oops, an error
Loading. Please wait.

Let It Burn tab

version 1
version 1

Whole song

  • I was supposed to make the lead guitar but i got i... Show more

Interactive

by Avatar
223 views 33 this week
no commentswrite comment
1 2 3 4 5
3 more votes to show rating
add to favorites
×
Save as Personal and add changes to this tab that will be seen only by you. Learn more ›
×
You can save this tab as Personal to edit and correct it or add notes. All changes will be seen only by you. Learn more »
launch autoscroll
font size
0
reset
how to read this tab
guitar tuner
edit
Autoscroll
slow
fast
+/-
esc
set tempo
stop
About this tab version
I was supposed to make the lead guitar but i got into some depression problems and stuff so i couldn't continue and complete the solo. So this is all i can make for now. Was this info helpful? Yes No
Artist : Avatar
Song : Let It Burn
Album : Black Waltz
Release Date : 2012
Produced by : Tobias Lindell

Tempo - 115

[Intro]
Clean
B |---------------------------------------|
F#|---------------------------------------|
D |---------------------------------------|
A |---------------------------------------|
E |-0---5p0--3p0--5p0--3p0-------3p0--3h5-|
B |-------------------------3h5-----------|

B |------------------------3--------0-|
F#|------------------------3--------0-|
D |-----------------------------------|
A |-------------------1/2------1/2----|
E |-0---5p0--3p0----------------------|
B |---------------3h5-----------------|

B |---------------------------------------|
F#|---------------------------------------|
D |---------------------------------------|
A |---------------------------------------|
E |-0---5p0--3p0--5p0--3p0-------3p0--3h5-|
B |-------------------------3h5-----------|

B |-------------------------------------------|
F#|-------------------------------------------|
D |-------------------------------------------|
A |--------------------5----------------------|
E |-0---3p0--5p0--6p0-----7--6--5--7--6--5--3-|
B |-------------------------------------------|

B |---------------------------------------|
F#|---------------------------------------|
D |---------------------------------------|
A |---------------------------------------|
E |-0---5p0--3p0--5p0--3p0-------3p0--3h5-|
B |-------------------------3h5-----------|

B |------------------------3--------0-|
F#|------------------------3--------0-|
D |-----------------------------------|
A |-------------------1/2------1/2----|
E |-0---5p0--3p0----------------------|
B |---------------3h5-----------------|

B |---------------------------------------|
F#|---------------------------------------|
D |---------------------------------------|
A |---------------------------------------|
E |-0---5p0--3p0--5p0--3p0-------3p0--3h5-|
B |-------------------------3h5-----------|

B |-------------------|
F#|-------------------|
D |-------------------|
A |-------------------|
E |-0---5p0--3p0------|
B |---------------3h5-|

(Tone switch - Distortion)
B |--------------------------------|
F#|--------------------------------|
D |--------------------------------|
A |--------------------------------|
E |-3---5-------------5---5---14/--|
B |-1---3-------------3---3---12/--|

[Main Riff]
B |---------------------------------------|
F#|---------------------------------------|
D |---------------------------------------|
A |---------------------------------------|
E |-0---5p0--3p0--5p0--3p0-------3p0--3h5-|
B |-------------------------3h5-----------|

B |------------------------3--------0-|
F#|------------------------3--------0-|
D |-----------------------------------|
A |-------------------1\2------1\2----|
E |-0---5p0--3p0----------------------|
B |---------------3h5-----------------|

B |---------------------------------------|
F#|---------------------------------------|
D |---------------------------------------|
A |---------------------------------------|
E |-0---5p0--3p0--5p0--3p0-------3p0--3h5-|
B |-------------------------3h5-----------|

B |-------------------------------------------|
F#|-------------------------------------------|
D |-------------------------------------------|
A |--------------------5----------------------|
E |-0---3p0--5p0--6p0-----7--6--5--7--6--5--3-|
B |-------------------------------------------|

B |---------------------------------------|
F#|---------------------------------------|
D |---------------------------------------|
A |---------------------------------------|
E |-0---5p0--3p0--5p0--3p0-------3p0--3h5-|
B |-------------------------3h5-----------|

B |------------------------3--------0-|
F#|------------------------3--------0-|
D |-----------------------------------|
A |-------------------1\2------1\2----|
E |-0---5p0--3p0----------------------|
B |---------------3h5-----------------|

B |---------------------------------------|
F#|---------------------------------------|
D |---------------------------------------|
A |---------------------------------------|
E |-0---5p0--3p0--5p0--3p0-------3p0--3h5-|
B |-------------------------3h5-----------|

B |-------------------------------|
F#|-------------------------------|
D |-------------------------------|
A |-------------------------------|
E |-0---5p0--3p0-------3---5----7-|
B |---------------3h5--1---3----5-|

[Verse]
You feel a sudden pain
The night turns bright as day
This shit is going straight

Out of your mind
B |---------------------------|
F#|---------------------------|
D |---------------------------|
A |-5-------------------------|
E |----7--6--5--7--6--5--3--7-|
B |-------------------------5-|

You start to feel afraid
It is the price you pay
To get the thrill

You need to stay alive
B |----------|
F#|----------|
D |----------|
A |----------|
E |-3---5----|
B |-1---3----|

[Main Riff]
Burn!
B |---------------------------------------|
F#|---------------------------------------|
D |---------------------------------------|
A |---------------------------------------|
E |-0---5p0--3p0--5p0--3p0-------3p0--3h5-|
B |-------------------------3h5-----------|

B |------------------------3--------0-|
F#|------------------------3--------0-|
D |-----------------------------------|
A |-------------------1\2------1\2----|
E |-0---5p0--3p0----------------------|
B |---------------3h5-----------------|

B |---------------------------------------|
F#|---------------------------------------|
D |---------------------------------------|
A |---------------------------------------|
E |-0---5p0--3p0--5p0--3p0-------3p0--3h5-|
B |-------------------------3h5-----------|

Let it burn!
B |-------------------------------------------|
F#|-------------------------------------------|
D |-------------------------------------------|
A |--------------------5----------------------|
E |-0---3p0--5p0--6p0-----7--6--5--7--6--5--3-|
B |-------------------------------------------|

B |---------------------------------------|
F#|---------------------------------------|
D |---------------------------------------|
A |---------------------------------------|
E |-0---5p0--3p0--5p0--3p0-------3p0--3h5-|
B |-------------------------3h5-----------|

Let it burn!
B |------------------------3--------0-|
F#|------------------------3--------0-|
D |-----------------------------------|
A |-------------------1/2------1/2----|
E |-0---5p0--3p0----------------------|
B |---------------3h5-----------------|

B |---------------------------------------|
F#|---------------------------------------|
D |---------------------------------------|
A |---------------------------------------|
E |-0---5p0--3p0--5p0--3p0-------3p0--3h5-|
B |-------------------------3h5-----------|

B |-------------------------------|
F#|-------------------------------|
D |-------------------------------|
A |-------------------------------|
E |-0---5p0--3p0-------3---5----7-|
B |---------------3h5--1---3----5-|

[Verse]
Between the cuts and cries
You'll find a way to die
Just take a sip

And twist it like a knife
B |---------------------------|
F#|---------------------------|
D |---------------------------|
A |-5-------------------------|
E |----7--6--5--7--6--5--3--7-|
B |-------------------------5-|

A city full of sound
Too late to turn around
You need to flee the light

To save your life
B |----------|
F#|----------|
D |----------|
A |----------|
E |-3---5----|
B |-1---3----|

[Chorus]
You like when it hurts?
B |------------------------------------------------|
F#|------------------------------------------------|
D |------4---5---4--5--4------7--------------------|
A |-7---------------------7------------------------|
E |----------------------------------5---5---5---5-|
B |----------------------------------3---3---3---3-|

Let it burn!

[Main Riff]
B |---------------------------------------|
F#|---------------------------------------|
D |---------------------------------------|
A |---------------------------------------|
E |-0---5p0--3p0--5p0--3p0-------3p0--3h5-|
B |-------------------------3h5-----------|

B |------------------------3--------0-|
F#|------------------------3--------0-|
D |-----------------------------------|
A |-------------------1\2------1\2----|
E |-0---5p0--3p0----------------------|
B |---------------3h5-----------------|

B |---------------------------------------|
F#|---------------------------------------|
D |---------------------------------------|
A |---------------------------------------|
E |-0---5p0--3p0--5p0--3p0-------3p0--3h5-|
B |-------------------------3h5-----------|

Let it burn!
B |-------------------------------------------|
F#|-------------------------------------------|
D |-------------------------------------------|
A |--------------------5----------------------|
E |-0---3p0--5p0--6p0-----7--6--5--7--6--5--3-|
B |-------------------------------------------|

B |---------------------------------------|
F#|---------------------------------------|
D |---------------------------------------|
A |---------------------------------------|
E |-0---5p0--3p0--5p0--3p0-------3p0--3h5-|
B |-------------------------3h5-----------|

B |------------------------3--------0-|
F#|------------------------3--------0-|
D |-----------------------------------|
A |-------------------1\2------1\2----|
E |-0---5p0--3p0----------------------|
B |---------------3h5-----------------|

B |---------------------------------------|
F#|---------------------------------------|
D |---------------------------------------|
A |---------------------------------------|
E |-0---5p0--3p0--5p0--3p0-------3p0--3h5-|
B |-------------------------3h5-----------|

B |-------------------------------|
F#|-------------------------------|
D |-------------------------------|
A |-------------------------------|
E |-0---5p0--3p0-------3---5----7-|
B |---------------3h5--1---3----5-|

[Verse]
You ain't sure what came first
Was it your flame or thirst?
You need to please them both

To put you out
B |---------------------------|
F#|---------------------------|
D |---------------------------|
A |-5-------------------------|
E |----7--6--5--7--6--5--3--7-|
B |-------------------------5-|

Another wasted youth
You thought you'd seen the truth
We need to find a voice

To help you shout
B |----------|
F#|----------|
D |----------|
A |----------|
E |-3---5----|
B |-1---3----|

[Chorus]
I like when it hurts!
B |------------------------------------------------|
F#|------------------------------------------------|
D |------4---5---4--5--4------7--------------------|
A |-7---------------------7------------------------|
E |----------------------------------5---5---5---5-|
B |----------------------------------3---3---3---3-|

Let it burn!

[Stick]
B |------------------------------------------------------|
F#|------------------------------------------------------|
D |------------------------------------------------------|
A |------------------------------------------------------|
E |----------------------------------------6---5---------|
B |-3---5---5-----5-----3---5---5----5-------------8---5-|

B |--------------------------------------------|
F#|--------------------------------------------|
D |--------------------------------------------|
A |--------------------------------------------|
E |-----------------------------------4-----3--|
B |-3---5---5-----5-----3---5---5-----2-----1--|

B |-------------------------------------------------------|
F#|-------------------------------------------------------|
D |-------------------------------------------------------|
A |--------------------------------------5h7p5------------|
E |---------------------------------------------6---5-----|
B |-3---5---5-----5-----3---5---5-----------------------8-|

B |--------------------------------------------|
F#|--------------------------------------------|
D |--------------------------------------------|
A |--------------------------------------------|
E |-----------------------------------4-----3--|
B |-3---5---5-----5-----3---5---5-----2-----1--|

[Solo]
B |------------------------------------------------------|
F#|------------------------------------------------------|
D |------------------------------------------------------|
A |------------------------------------------------------|
E |-5---7---7-----7-----5---7---7----7-----6---5---------|
B |-3---5---5-----5-----3---5---5----5-------------8---5-|

B |--------------------------------------------|
F#|--------------------------------------------|
D |--------------------------------------------|
A |--------------------------------------------|
E |-5---7---7-----7-----5---7---7-----4-----3--|
B |-3---5---5-----5-----3---5---5-----2-----1--|

B |-------------------------------------------------------|
F#|-------------------------------------------------------|
D |-------------------------------------------------------|
A |--------------------------------------5h7p5------------|
E |-5---7---7-----7-----5---7---7---------------6---5-----|
B |-3---5---5-----5-----3---5---5-----------------------8-|

B |--------------------------------------------|
F#|--------------------------------------------|
D |--------------------------------------------|
A |--------------------------------------------|
E |-5---7---7-----7-----5---7---7-----4-----3--|
B |-3---5---5-----5-----3---5---5-----2-----1--|

B |-----------0--------------------------------|
F#|-----------0--------------------------------|
D |--------------------------------------------|
A |-2-------------------5----------------------|
E |-2----------------------7--6--5--7--6--5--3-|
B |-0------------------------------------------|

B |------------------------------------------------------|
F#|------------------------------------------------------|
D |-8--7--5-----7--5-------------------------------------|
A |----------7--------7--5--10--7---------10--7--------2-|
E |--------------------------------10--7---------10-7--0-|
B |------------------------------------------------------|

Burn!!

[Breakdown]
(Tone switch - Clean)
B |---------------------------------------|
F#|---------------------------------------|
D |---------------------------------------|
A |---------------------------------------|
E |-0---5p0--3p0--5p0--3p0-------3p0--3h5-|
B |-------------------------3h5-----------|

B |------------------------3--------0-|
F#|------------------------3--------0-|
D |-----------------------------------|
A |-------------------1/2------1/2----|
E |-0---5p0--3p0----------------------|
B |---------------3h5-----------------|

B |---------------------------------------|
F#|---------------------------------------|
D |---------------------------------------|
A |---------------------------------------|
E |-0---5p0--3p0--5p0--3p0-------3p0--3h5-|
B |-------------------------3h5-----------|

B |-------------------------------------------|
F#|-------------------------------------------|
D |-------------------------------------------|
A |--------------------5----------------------|
E |-0---3p0--5p0--6p0-----7--6--5--7--6--5--3-|
B |-------------------------------------------|

B |---------------------------------------|
F#|---------------------------------------|
D |---------------------------------------|
A |---------------------------------------|
E |-0---5p0--3p0--5p0--3p0-------3p0--3h5-|
B |-------------------------3h5-----------|

Let it burn!
B |------------------------3--------0-|
F#|------------------------3--------0-|
D |-----------------------------------|
A |-------------------1/2------1/2----|
E |-0---5p0--3p0----------------------|
B |---------------3h5-----------------|

B |---------------------------------------|
F#|---------------------------------------|
D |---------------------------------------|
A |---------------------------------------|
E |-0---5p0--3p0--5p0--3p0-------3p0--3h5-|
B |-------------------------3h5-----------|

Let it!!!
                        (Tone switch - Distortion)
B |-------------------|------------------------------|
F#|-------------------|------------------------------|
D |-------------------|------------------------------|
A |-------------------|------------------------------|
E |-0---5p0--3p0------|----3---5---------5---5---14/-|
B |---------------3h5-|----1---3---------3---5---12/-|

[Main Riff]
Burn!!!
B |---------------------------------------|
F#|---------------------------------------|
D |---------------------------------------|
A |---------------------------------------|
E |-0---5p0--3p0--5p0--3p0-------3p0--3h5-|
B |-------------------------3h5-----------|

Let it burn!
B |------------------------3--------0-|
F#|------------------------3--------0-|
D |-----------------------------------|
A |-------------------1\2------1\2----|
E |-0---5p0--3p0----------------------|
B |---------------3h5-----------------|

B |---------------------------------------|
F#|---------------------------------------|
D |---------------------------------------|
A |---------------------------------------|
E |-0---5p0--3p0--5p0--3p0-------3p0--3h5-|
B |-------------------------3h5-----------|

Let it burn!
B |-------------------------------------------|
F#|-------------------------------------------|
D |-------------------------------------------|
A |--------------------5----------------------|
E |-0---3p0--5p0--6p0-----7--6--5--7--6--5--3-|
B |-------------------------------------------|

B |---------------------------------------|
F#|---------------------------------------|
D |---------------------------------------|
A |---------------------------------------|
E |-0---5p0--3p0--5p0--3p0-------3p0--3h5-|
B |-------------------------3h5-----------|

Let it burn!
B |------------------------3--------0-|
F#|------------------------3--------0-|
D |-----------------------------------|
A |-------------------1\2------1\2----|
E |-0---5p0--3p0----------------------|
B |---------------3h5-----------------|

B |---------------------------------------|
F#|---------------------------------------|
D |---------------------------------------|
A |---------------------------------------|
E |-0---5p0--3p0--5p0--3p0-------3p0--3h5-|
B |-------------------------3h5-----------|

B |--------------------------|
F#|--------------------------|
D |--------------------------|
A |--------------------------|
E |-0---5p0--3p0-------3---5-|
B |---------------3h5--1---3-|

[Chorus]
I like when it hurts!
B |------------------------------------------------|
F#|------------------------------------------------|
D |------4---5---4--5--4------7--------------------|
A |-7---------------------7------------------------|
E |----------------------------------5---5---5---5-|
B |----------------------------------3---3---3---3-|

Let it burn!

B |-------|
F#|-------|
D |-------|
A |-------|
E |-7---7-|
B |-5---5-|

************************

|  h  =  Hammer-On
|  p  =  Pull-Off
|  /  =  Slide Up
|  \  =  Dlide Down

************************

            
            
Suggest correction
Creating personal tab
Creating personal tab
You can edit any tab online and save it as your Personal.

You can edit, replace or remove any tab part or add personal notes – all changes will be seen only by you.

Personal tabs can be accessed anytime from any device, even offline.
Learn more »
Give kudos to tab author, rate the tab!
1 2 3 4 5
comments
print report bad tab
guest
You may want to rate the tab now too:
select rating
Wanna post a correction for this tab? Suggest correction