Oops, an error
Loading. Please wait.

Night Never Ending tab

by Avatar
19 views 6 this week
no commentswrite comment
1 2 3 4 5
3 more votes to show rating
add to favorites
×
Save as Personal and add changes to this tab that will be seen only by you. Learn more ›
×
You can save this tab as Personal to edit and correct it or add notes. All changes will be seen only by you. Learn more »
launch autoscroll
font size
0
reset
how to read this tab
guitar tuner
edit
Autoscroll
slow
fast
+/-
esc
set tempo
stop
Artist : Avatar
Song : Night Never Ending
Album : Feathers & Flesh
Release Date : 2016
Produced by : Sylvia Massy

[Intro]
D|-------------7-------7---------------7-------7-|
A|-7---9---7-------7-------7---9---7-------7-----|
F|-----------------------------------------------|  (x4)
C|-----------------------------------------------|
G|-----------------------------------------------|
C|-----------------------------------------------|

D|-----------------------------------------------|
A|-0---0---0---0---0---0---0---0---0---0---0---0-|
F|-----------------------------------------------|
C|-----------------------------------------------|
G|-----------------------------------------------|
C|-----------------------------------------------|

D|-----------------------------------------------|
A|-5---5---5---4---4---4---2---2---2---0---0---0-|
F|-----------------------------------------------|
C|-----------------------------------------------|
G|-----------------------------------------------|
C|-----------------------------------------------|

D|-----------------------------------------------|
A|-----------------------------------------------|
F|-3---3---3---3---3---3---3---3---3---3---3---3-|
C|-----------------------------------------------|
G|-----------------------------------------------|
C|-----------------------------------------------|

D|-----------------------------------------------|
A|-4---4---4---5---5---5---2---2---2---4---4---4-|
F|-----------------------------------------------|
C|-----------------------------------------------|
G|-----------------------------------------------|
C|-----------------------------------------------|

D|-----------------------------------------------|
A|-0---0---0---0---0---0---0---0---0---0---0---0-|
F|-----------------------------------------------|
C|-----------------------------------------------|
G|-----------------------------------------------|
C|-----------------------------------------------|

D|-----------------------------------------------|
A|-5---5---5---4---4---4---7---7---7---4---4---4-|
F|-----------------------------------------------|
C|-----------------------------------------------|
G|-----------------------------------------------|
C|-----------------------------------------------|

D|-----------------------------------------------|
A|-5---5---5---5---5---5---7---7---7---7---7---7-|
F|-----------------------------------------------|
C|-----------------------------------------------|
G|-----------------------------------------------|
C|-----------------------------------------------|

D|-----------------------------------------------------------|
A|-11---11---11---11---11---11---12---12---12---12---12---12-|
F|-----------------------------------------------------------|
C|-----------------------------------------------------------|
G|-----------------------------------------------------------|
C|-----------------------------------------------------------|

D|-----------------------------------------------|
A|-----------------------------------------------|
F|-----------------------------------------------|  (x2)
C|-----------------------------------------------|
G|-----------------------------------------------|
C|-9---9---9---9---9---9---9---9---9---9---9---9-|
PM .   .   .   .   .   .   .   .   .   .   .   .

[Verse]
D|-----------------------------------------------|
A|-----------------------------------------------|
F|-----------------------------------------------|  (x4)
C|-----------------------------------------------|
G|-----------------------------------------------|
C|-9---9---9---9---9---9---9---9---9---9---9---9-|
PM .   .   .   .   .   .   .   .   .   .   .   .

D|-----------------------------------------------|
A|-----------------------------------------------|
F|-----------------------------------------------|  (x3)
C|-------------9-----------------------9---------|
G|-----9---------------9-------9---------------9-|
C|-9-------9-------9-------9-------9-------9-----|
PM .   .   .   .   .   .   .   .   .   .   .   .

D|---------------------------------------|
A|---------------------------------------|
F|---------------------------------------|
C|-------------9-----------------------9-|
G|-----9---------------9-------9---------|
C|-9-------9-------9-------9-------9-----|
PM .   .   .   .   .   .   .   .   .   .

D|-----------------------------------------------|
A|-----------------------------------------------|
F|-----------------------------------------------|
C|-------------2-----------------------2---------|
G|-----2---------------2-------2---------------2-|
C|-2-------2-------2-------2-------2-------2-----|
PM .   .   .   .   .   .   .   .   .   .   .   .

D|---------------------------------------|
A|---------------------------------------|
F|---------------------------------------|
C|-------------------------------------4-|
G|---------------------2---1---2---4-----|
C|-4---6---8---6---8---------------------|
PM .   .   .   .   .   .   .   .   .   .

[Chorus]
D|-----------------------------------------------|
A|-----------------------------------------------|
F|-----------------------------------------------|
C|-------------9-----------------------9---------|
G|-----9---------------9-------9---------------9-|
C|-9-------9-------9-------9-------9-------9-----|

D|---------------------------------------|
A|---------------------------------------|
F|---------------------------------------|
C|-------------9-----------------------9-|
G|-----9---------------9-------9---------|
C|-9-------9-------9-------9-------9-----|

D|-----------------------------------------------|
A|-----------------------------------------------|
F|-----------------------------------------------|
C|-------------4-----------------------4---------|
G|-----4---------------4-------4---------------4-|
C|-4-------4-------4-------4-------4-------4-----|

D|---------------------------------------|
A|---------------------------------------|
F|---------------------------------------|
C|-------------4-----------------------4-|
G|-----4---------------4-------4---------|
C|-4-------4-------4-------4-------4-----|

D|-----------------------------------------------|
A|-----------------------------------------------|
F|-----------------------------------------------|
C|-------------9-----------------------9---------|
G|-----9---------------9-------9---------------9-|
C|-9-------9-------9-------9-------9-------9-----|

D|---------------------------------------|
A|---------------------------------------|
F|---------------------------------------|
C|-------------9-----------------------9-|
G|-----9---------------9-------9---------|
C|-9-------9-------9-------9-------9-----|

D|-----------------------------------------------|
A|-----------------------------------------------|
F|-----------------------------------------------|
C|-------------2-----------------------2---------|
G|-----2---------------2-------2---------------2-|
C|-2-------2-------2-------2-------2-------2-----|

D|---------------------------------------|
A|---------------------------------------|
F|---------------------------------------|
C|-------------------------------------4-|
G|---------------------2---1---2---4-----|
C|-2---6---8---6---8---------------------|

[Choir]
D|-----------------------------------------------|
A|-----------------------------------------------|
F|-----------------------------------------------|  (x2)
C|-9---9---9---9---9---9---9---9---9---9---9---9-|
G|-9---9---9---9---9---9---9---9---9---9---9---9-|
C|-9---9---9---9---9---9---9---9---9---9---9---9-|

D|-----------------------------------------------|
A|-----------------------------------------------|
F|-----------------------------------------------|  (x2)
C|-4---4---4---4---4---4---4---4---4---4---4---4-|
G|-4---4---4---4---4---4---4---4---4---4---4---4-|
C|-4---4---4---4---4---4---4---4---4---4---4---4-|

D|-----------------------------------------------|
A|-----------------------------------------------|
F|-----------------------------------------------|  (x2)
C|-9---9---9---9---9---9---9---9---9---9---9---9-|
G|-9---9---9---9---9---9---9---9---9---9---9---9-|
C|-9---9---9---9---9---9---9---9---9---9---9---9-|

D|-----------------------------------------------|
A|-----------------------------------------------|
F|-----------------------------------------------|
C|-2---2---2---2---2---2---2---2---2---2---2---2-|
G|-2---2---2---2---2---2---2---2---2---2---2---2-|
C|-2---2---2---2---2---2---2---2---2---2---2---2-|

D|---------------------------------------|
A|---------------------------------------|
F|---------------------------------------|
C|-------------------------------------4-|
G|---------------------2---1---2---4-----|
C|-4---6---8---6---8---------------------|

[Solo]
D|---------------------------------------------------|
A|--------------12-----------------------------------|
F|-----11--------------11----------------------------|
C|-9--------9---------------11---13---11-------9-----|
G|-----------------------------------------9-------9-|
C|---------------------------------------------------|

D|-------------------------------------------|
A|--------------12---------------------------|
F|-----11--------------11--------------------|
C|-9--------9---------------11---13---11-----|
G|-----------------------------------------9-|
C|-------------------------------------------|

D|---------------------------------------------------|
A|--------------12-----------------------------------|
F|-----11--------------11----------------------------|
C|-9--------9---------------11---13---11-------9-----|
G|-----------------------------------------9-------9-|
C|---------------------------------------------------|

D|-----------------------------------------------|
A|-------------5---------------------------------|
F|-----4-------------4---------------------------|
C|-2-------2-------------------------------------|
G|-----------------------------------------------|
C|-----------------------6---8---9---8---6---4---|

D|---------------------------------------------------|
A|--------------12-----------------------------------|
F|-----11--------------11----------------------------|
C|-9--------9---------------11---13---11-------9-----|
G|-----------------------------------------9-------9-|
C|---------------------------------------------------|

D|-------------------------------------------|
A|--------------12---------------------------|
F|-----11--------------11--------------------|
C|-9--------9---------------11---13---11-----|
G|-----------------------------------------9-|
C|-------------------------------------------|

D|---------------------------------------------------|
A|--------------12-----------------------------------|
F|-----11--------------11----------------------------|
C|-9--------9---------------11---13---11-------9-----|
G|-----------------------------------------9-------9-|
C|---------------------------------------------------|

D|-----------------------------------------------|
A|-------------5---------------------------------|
F|-----4-------------4---------------------------|
C|-2-------2-------------------------------------|
G|-----------------------------------------------|
C|-----------------------6---8---9---8---6---4---|

D|----------------------------------------------------------------|
A|----------------------------------------------------------------|
F|----------------------------------------------------------------|
C|-13---11--13--11---11---9---11---13---11--13--11---11---10---11-|
G|----------------------------------------------------------------|
C|----------------------------------------------------------------|

D|-------------------------------------------------|
A|-------------------------------------------------|
F|-------------------------------------------------|
C|-13---11---13---15---13---15---16---15---16---11-|
G|-------------------------------------------------|
C|-------------------------------------------------|

D|----------------------------------------------------------------|
A|----------------------------------------------------------------|
F|----------------------------------------------------------------|
C|-13---11--13--11---11---9---11---13---11--13--11---11---10---11-|
G|----------------------------------------------------------------|
C|----------------------------------------------------------------|

D|-------------------------------------------------|
A|-------------------------------------------------|
F|-------------------------------------------------|
C|-13---11---13---15---13---11---13---11---10---11-|
G|-------------------------------------------------|
C|-------------------------------------------------|

D|-----------------------------------------------|
A|-----------------------------------------------|
F|-11---9---9---9------8---11---9---9---9------8-|
C|-----------------------------------------------|
G|-----------------------------------------------|
C|-----------------------------------------------|
PM      .   .                   .   .

D|-------------------------------------------------|
A|-------------------------------------------------|
F|-11---9---9---9------8---------------------------|
C|-------------------------9---11---9--------------|
G|--------------------------------------9---11---9-|
C|-------------------------------------------------|
PM      .   .

D|-----------------------------------------------|
A|-----------------------------------------------|
F|-11---9---9---9------8---11---9---9---9------8-|
C|-----------------------------------------------|
G|-----------------------------------------------|
C|-----------------------------------------------|
PM      .   .                   .   .

D|----------------------------------------|
A|----------------------------------------|
F|-11---9---9---9------8------------------|
C|-------------------------9---11---9-----|
G|--------------------------------------9-|
C|----------------------------------------|
PM      .   .

D|-----------------------------------------------|
A|-----------------------------------------------|
F|-11---9---9---9------8---11---9---9---9------8-|
C|-----------------------------------------------|
G|-----------------------------------------------|
C|-----------------------------------------------|
PM      .   .                   .   .

D|-------------------------------------------------|
A|-------------------------------------------------|
F|-11---9---9---9------8---------------------------|
C|-------------------------9---11---9--------------|
G|--------------------------------------9---11---9-|
C|-------------------------------------------------|
PM      .   .

D|-----------------------------------------------|
A|-----------------------------------------------|
F|-11---9---9---9------8---11---9---9---9------8-|
C|-----------------------------------------------|
G|-----------------------------------------------|
C|-----------------------------------------------|
PM      .   .                   .   .

D|---------------------------------------|
A|---------------------------------------|
F|---------------------------------------|
C|-------------------------8---8---8---9-|
G|-7---7---7---9---9---9-----------------|
C|---------------------------------------|

D|---------------------------------------------------|
A|--------------12-----------------------------------|
F|-----11--------------11----------------------------|
C|-9--------9---------------11---13---11-------9-----|
G|-----------------------------------------9-------9-|
C|---------------------------------------------------|

D|-------------------------------------------|
A|--------------12---------------------------|
F|-----11--------------11--------------------|
C|-9--------9---------------11---13---11-----|
G|-----------------------------------------9-|
C|-------------------------------------------|

D|---------------------------------------------------|
A|--------------12-----------------------------------|
F|-----11--------------11----------------------------|
C|-9--------9---------------11---13---11-------9-----|
G|-----------------------------------------9-------9-|
C|---------------------------------------------------|

D|-----------------------------------------------|
A|-------------5---------------------------------|
F|-----4-------------4---------------------------|
C|-2-------2-------------------------------------|
G|-------------------------------------------2---|
C|-----------------------4---6---8---6---8-------|

[Chorus]
D|-----------------------------------------------|
A|-----------------------------------------------|
F|-----------------------------------------------|
C|-------------9-----------------------9---------|
G|-----9---------------9-------9---------------9-|
C|-9-------9-------9-------9-------9-------9-----|

D|---------------------------------------|
A|---------------------------------------|
F|---------------------------------------|
C|-------------9-----------------------9-|
G|-----9---------------9-------9---------|
C|-9-------9-------9-------9-------9-----|

D|-----------------------------------------------|
A|-----------------------------------------------|
F|-----------------------------------------------|
C|-------------4-----------------------4---------|
G|-----4---------------4-------4---------------4-|
C|-4-------4-------4-------4-------4-------4-----|

D|---------------------------------------|
A|---------------------------------------|
F|---------------------------------------|
C|-------------4-----------------------4-|
G|-----4---------------4-------4---------|
C|-4-------4-------4-------4-------4-----|

D|-----------------------------------------------|
A|-----------------------------------------------|
F|-----------------------------------------------|
C|-------------9-----------------------9---------|
G|-----9---------------9-------9---------------9-|
C|-9-------9-------9-------9-------9-------9-----|

D|---------------------------------------|
A|---------------------------------------|
F|---------------------------------------|
C|-------------9-----------------------9-|
G|-----9---------------9-------9---------|
C|-9-------9-------9-------9-------9-----|

D|-----------------------------------------------|
A|-----------------------------------------------|
F|-----------------------------------------------|
C|-------------2-----------------------2---------|
G|-----2---------------2-------2---------------2-|
C|-2-------2-------2-------2-------2-------2-----|

D|---------------------------------------|
A|---------------------------------------|
F|---------------------------------------|
C|-------------------------------------4-|
G|---------------------2---1---2---4-----|
C|-4---6---8---6---8---------------------|

[Choir]
D|-----------------------------------------------|
A|-----------------------------------------------|
F|-----------------------------------------------|  (x2)
C|-9---9---9---9---9---9---9---9---9---9---9---9-|
G|-9---9---9---9---9---9---9---9---9---9---9---9-|
C|-9---9---9---9---9---9---9---9---9---9---9---9-|

D|-----------------------------------------------|
A|-----------------------------------------------|
F|-----------------------------------------------|  (x2)
C|-4---4---4---4---4---4---4---4---4---4---4---4-|
G|-4---4---4---4---4---4---4---4---4---4---4---4-|
C|-4---4---4---4---4---4---4---4---4---4---4---4-|

D|-----------------------------------------------|
A|-----------------------------------------------|
F|-----------------------------------------------|  (x2)
C|-9---9---9---9---9---9---9---9---9---9---9---9-|
G|-9---9---9---9---9---9---9---9---9---9---9---9-|
C|-9---9---9---9---9---9---9---9---9---9---9---9-|

D|-----------------------------------------------|
A|-----------------------------------------------|
F|-----------------------------------------------|
C|-2---2---2---2---2---2---2---2---2---2---2---2-|
G|-2---2---2---2---2---2---2---2---2---2---2---2-|
C|-2---2---2---2---2---2---2---2---2---2---2---2-|

D|---------------------------------------|
A|---------------------------------------|
F|---------------------------------------|
C|-------------------------------------4-|
G|---------------------2---1---2---4-----|
C|-4---6---8---6---8---------------------|

[Chorus]
D|-----------------------------------------------|
A|-----------------------------------------------|
F|-----------------------------------------------|
C|-------------9-----------------------9---------|
G|-----9---------------9-------9---------------9-|
C|-9-------9-------9-------9-------9-------9-----|

D|---------------------------------------|
A|---------------------------------------|
F|---------------------------------------|
C|-------------9-----------------------9-|
G|-----9---------------9-------9---------|
C|-9-------9-------9-------9-------9-----|

D|-----------------------------------------------|
A|-----------------------------------------------|
F|-----------------------------------------------|
C|-------------4-----------------------4---------|
G|-----4---------------4-------4---------------4-|
C|-4-------4-------4-------4-------4-------4-----|

D|---------------------------------------|
A|---------------------------------------|
F|---------------------------------------|
C|-------------4-----------------------4-|
G|-----4---------------4-------4---------|
C|-4-------4-------4-------4-------4-----|

D|-----------------------------------------------|
A|-----------------------------------------------|
F|-----------------------------------------------|
C|-------------9-----------------------9---------|
G|-----9---------------9-------9---------------9-|
C|-9-------9-------9-------9-------9-------9-----|

D|---------------------------------------|
A|---------------------------------------|
F|---------------------------------------|
C|-------------9-----------------------9-|
G|-----9---------------9-------9---------|
C|-9-------9-------9-------9-------9-----|

D|-----------------------------------------------|
A|-----------------------------------------------|
F|-----------------------------------------------|
C|-------------2-----------------------2---------|
G|-----2---------------2-------2---------------2-|
C|-2-------2-------2-------2-------2-------2-----|

D|---------------------------------------|
A|---------------------------------------|
F|---------------------------------------|
C|-------------------------------------4-|
G|---------------------2---1---2---4-----|
C|-4---6---8---6---8---------------------|

[Outro]
D|-----------------------------------------------|
A|-----------------------------------------------|
F|-----------------------------------------------|
C|-9----------4----------9----------2-----4------|
G|-9----------4----------9----------2-----4------|
C|-9----------4----------9----------2-----4------|

D|-----------------------------------------------|
A|-0---0---0---0---0---0---0---0---0---0---0---0-|
F|-----------------------------------------------|
C|-----------------------------------------------|
G|-----------------------------------------------|
C|-----------------------------------------------|

D|-----------------------------------------------|
A|-5---5---5---4---4---4---2---2---2---0---0---0-|
F|-----------------------------------------------|
C|-----------------------------------------------|
G|-----------------------------------------------|
C|-----------------------------------------------|

D|-----------------------------------------------|
A|-----------------------------------------------|
F|-3---3---3---3---3---3---3---3---3---3---3---3-|
C|-----------------------------------------------|
G|-----------------------------------------------|
C|-----------------------------------------------|

D|-----------------------------------------------|
A|-4---4---4---5---5---5---2---2---2---4---4---4-|
F|-----------------------------------------------|
C|-----------------------------------------------|
G|-----------------------------------------------|
C|-----------------------------------------------|

D|-----------------------------------------------|
A|-0---0---0---0---0---0---0---0---0---0---0---0-|
F|-----------------------------------------------|
C|-----------------------------------------------|
G|-----------------------------------------------|
C|-----------------------------------------------|

D|-----------------------------------------------|
A|-5---5---5---4---4---4---7---7---7---4---4---4-|
F|-----------------------------------------------|
C|-----------------------------------------------|
G|-----------------------------------------------|
C|-----------------------------------------------|

D|-----------------------------------------------|
A|-5---5---5---5---5---5---7---7---7---7---7---7-|
F|-----------------------------------------------|
C|-----------------------------------------------|
G|-----------------------------------------------|
C|-----------------------------------------------|

D|-----------------------------------------------------------|
A|-11---11---11---11---11---11---12---12---12---12---12---12-|
F|-----------------------------------------------------------|
C|-----------------------------------------------------------|
G|-----------------------------------------------------------|
C|-----------------------------------------------------------|


***************************

|   PM   =   Palm Mute

***************************

            
            
Suggest correction
Creating personal tab
Creating personal tab
You can edit any tab online and save it as your Personal.

You can edit, replace or remove any tab part or add personal notes – all changes will be seen only by you.

Personal tabs can be accessed anytime from any device, even offline.
Learn more »
Give kudos to tab author, rate the tab!
1 2 3 4 5
comments
print report bad tab
guest
You may want to rate the tab now too:
select rating
Wanna post a correction for this tab? Suggest correction