Oops, an error
Loading. Please wait.

2013 Teaser Tab

version 1
version 1

Whole song

Interactive

1,206 views 6 this week
1 commentread comment
1 2 3 4 5
accurate
x 5
add to favorites
launch autoscroll
font size
0
reset
how to read this tab
guitar tuner
Autoscroll
slow
fast
+/-
esc
set tempo
stop
Help us to improve Ultimate-Guitar.com Take our survey!
×
Author
Difficulty
Tuning
novice
D A D G B E
-----------------------------------------------------------------------------
                             2013 Teaser - Avenged Sevenfold
-----------------------------------------------------------------------------
Tabbed by: RebelHeartbeat
E-mail: RebelHeartbeat@hotmail.com

I tabbed this by ear and it's my first time making a tab!
Enjoy!

Tuning: drop D


VIDEO TEASER


e|--------------------------------------------------------------------------|
B|--------------------------------------------------------------------------|
G|----------------------------------------------------5---------------------|
D|----5-------5-5-5-5-5---------------1---------------5-----------8-7-------|
A|----5-------5-5-5-5-5---------------1---------------3-----------8-7-------|
D|----5-------5-5-5-5-5---------------1---------------------------8-7-------|
              x x x x x                                           x x



AUDIO TEASER (Part 1)

Guitar 1:
e|-----------------|--------------------------------------------------------|
B|-----------------|--------------------------------------------------------|
G|-----------------|--------------------------------------------------------|
D|-1-----------2-1-|----------0---0-0-0--0-0-0----0---0-0-0-----------------|
A|-1-----------2-1-|----------0---0-0-0--0-0-0----0---0-0-0-----------------|
D|-1-----------2-1-|----------0---0-0-0--0-0-0----0---0-0-0-----------------|
               x x                x x x  x x x        x x x                

Guitar 2:
e|-----------------|--------------------------------------------------------|
B|-----------------|--------------------------------------------------------|
G|-----------------|--------------------------------------------------------|
D|-1-----------2-1-|----------0---0-0-0--0-0-0----0---0-0--3--2/3\2--0----0-|
A|-1-----------2-1-|----------0---0-0-0--0-0-0----0---0-0-------------------|
D|-1-----------2-1-|----------0---0-0-0--0-0-0----0---0-0-------------------|
               x x                x x x  x x x        x x 

e|-----------------|--------------------------------------------------------|
B|-----------------|--------------------------------------------------------|
G|-----------------|--------------------------------------------------------|
D|-1-----------2-1-|----------0---0-0-0--0-0-0----0---0-0--3--2/3\2--0--5-0-|
A|-1-----------2-1-|----------0---0-0-0--0-0-0----0---0-0-------------------|
D|-1-----------2-1-|----------0---0-0-0--0-0-0----0---0-0-------------------|
               x x                x x x  x x x        x x 



AUDIO TEASER (Part 2)


e|--------------------------------------------------------------------------|
B|--------------------------------------------------------------------------|
G|--------------------------------------------------------------------------|
D|----1---1-1-1-1-----1-1---5---5-5-5-5-----5-5-----------------------------|
A|----1---1-1-1-1-----1-1---5---5-5-5-5-----5-5-----------------------------|
D|----1---1-1-1-1-----1-1---5---5-5-5-5-----5-5-----------------------------|
          x x x x     x x       x x x x     x x

e|--------------------------------------------------------------------------|
B|--------------------------------------------------------------------------|
G|--------------------------------------------------------------------------|
D|----0---0-0-0-0-----0-0---5-------5-5-7---8-------------------------------|
A|----0---0-0-0-0-----0-0---5-------5-5-7---8-------------------------------|
D|----0---0-0-0-0-----0-0---5-------5-5-7---8-------------------------------|
          x x x x     x x           x x

e|--------------------------------------------------------------------------|
B|--------------------------------------------------------------------------|
G|--------------------------------------------------------------------------|
D|----1---1-1-1-1-----1-1---5---5-5-5-5-----5-5-----------------------------|
A|----1---1-1-1-1-----1-1---5---5-5-5-5-----5-5-----------------------------|
D|----1---1-1-1-1-----1-1---5---5-5-5-5-----5-5-----------------------------|
          x x x x     x x       x x x x     x x

e|--------------------------------------------------------------------------|
B|--------------------------------------------------------------------------|
G|--------------------------------------------------------------------------|
D|----0---0-0-0-0-----0-0---1-----------3---1---5---------------------------|
A|----0---0-0-0-0-----0-0---1-----------3---1---5---------------------------|
D|----0---0-0-0-0-----0-0---1-----------3---1---5---------------------------|
          x x x x     x x 

************************************

| /   slide up
| \   slide down
| h   hammer-on
| p   pull-off
| ~   vibrato
| +   harmonic
| x   Mute note
| b   Bend
| pb  Pre-bend
| br  Bend release
| pbr Pre-bend release
| brb Bend release bend

************************************
Suggest correction
What's this?
You can suggest a correction to this tab. Community and Mods will review your correction and vote to approve or reject it.
comments
print report bad tab
1 comment total.
0 reply
Mars Sevenfold 394 wrote on November 22 2013, 05:58 am

This Means War!!!!!!!!!!!!!!!!!!!!!!!!!!!!!!!!!!!!!!!!!!!!!!!!!!!!!!!!

guest
You may want to rate the tab now too:
select rating
Please do not post tabs as comments. Select "correction" instead!