Oops, an error
Loading. Please wait.

4 00 Am Bass Tab

version 1
version 1

Whole song

3,954 views 6 this week
no commentswrite comment
1 2 3 4 5
x 4
add to favorites
launch autoscroll
font size
0
reset
guitar tuner
Autoscroll
slow
fast
+/-
esc
set tempo
stop
Help us to improve Ultimate-Guitar.com Take our survey!
×
Author
Tuning
D A D G B E
-------------------------------------------------------------------------------
			                         4:00 AM - Avenged Sevenfold
-------------------------------------------------------------------------------

Tabbed By : mariewong.





Tuning: Drop D





Pre-verse [00:22]

G|-----------------------------------------------------------------|
D|------7-3-------------7-3---------5-0-8-5---------5-0-8-5--------|
A|--5-0-------------5-0--------------------------------------------|
D|----------0-0-0-----------0-0-0-----------0-0-0-----------0-0-0--|

G|---------------------------------|
D|------7-3---------------5--------|
A|--5-0-----5-0-5-4-0-4-7---7-4-7--|
D|---------------------------------|



Verse [00:32]

G|---------------------------------------------------------|
D|---------------------------------------------------------|
A|---------------------------------------------------------|
D|--0-00-0-0000---0-00-0-0000---5-55-5-5557---5-55-5-5557--|

G|-----------------------------|
D|-----------------------------|
A|-----------------------------|
D|--0-00-0-0000---2-22-2-2222--|

G|---------------------------------------------------------|
D|---------------------------------------------------------|
A|---------------------------------------------------------|
D|--0-00-0-0000---0-00-0-0000---5-55-5-5557---5-55-5-5557--|

G|-----------------------------|
D|-----------------------------|
A|-----------------------------|
D|--0-00-0-0000---2-22-2-2222--|



Pre-chorus [00:52]

G|------------------------------------------------------------|
D|------------------------------------------------------------|
A|-----------------------------------------------8-7-6-6------|
D|--00-/7-007-/12-0-0-/7-007-/12-0-0-/7-00-5-7-8---------3-2--|



Chorus [00:59]

G|-----------------------------------------|
D|-----------------------------------------|
A|-----------------------------------------|     [x2]
D|--0(x16)--10(x16)--9(x16)--8(x8)--7(x8)--|

G|------------------------------------------------------------|
D|------------------------------------------------------------|
A|-----------0(x8)-0---0-----1(x8)-1---1-----1-3-1-0-1-0------|     [x2]
D|--3(x16)-----------3---3-----------3---3---------------3-0--|

G|--------------------|
D|--------------------|
A|--------------------|
D|--3(x8)--2(x8)--1~--|



Pre-verse [01:32]

G|-----------------------------------------------------------------|
D|------7-3-------------7-3---------5-0-8-5---------5-0-8-5--------|
A|--5-0-------------5-0--------------------------------------------|
D|----------0-0-0-----------0-0-0-----------0-0-0-----------0-0-0--|

G|---------------------------------|
D|------7-3---------------5--------|
A|--5-0-----5-0-5-4-0-4-7---7-4-7--|
D|---------------------------------|



Verse [01:42]

G|---------------------------------------------------------|
D|---------------------------------------------------------|
A|---------------------------------------------------------|
D|--0-00-0-0000---0-00-0-0000---5-55-5-5557---5-55-5-5557--|

G|-----------------------------|
D|-----------------------------|
A|-----------------------------|
D|--0-00-0-0000---2-22-2-2222--|

G|---------------------------------------------------------|
D|---------------------------------------------------------|
A|---------------------------------------------------------|
D|--0-00-0-0000---0-00-0-0000---5-55-5-5557---5-55-5-5557--|

G|-----------------------------|
D|-----------------------------|
A|-----------------------------|
D|--0-00-0-0000---2-22-2-2222--|



Pre-chorus [02:02]

G|------------------------------------------------------------|
D|------------------------------------------------------------|
A|-----------------------------------------------8-7-6-6------|
D|--00-/7-007-/12-0-0-/7-007-/12-0-0-/7-00-5-7-8---------3-2--|



Chorus [02:08]

G|-----------------------------------------|
D|-----------------------------------------|
A|-----------------------------------------|     [x2]
D|--0(x16)--10(x16)--9(x16)--8(x8)--7(x8)--|

G|------------------------------------------------------------|
D|------------------------------------------------------------|
A|-----------0(x8)-0---0-----1(x8)-1---1-----1-3-1-0-1-0------|     [x2]
D|--3(x16)-----------3---3-----------3---3---------------3-0--|

G|--------------------|
D|--------------------|
A|--------------------|
D|--3(x8)--2(x8)--1~--|



Bridge [02:41]

G|------------------------------------|
D|------------------------------------|
A|------------------------------------|    [x4]
D|--0-/12-11-10-0-10-9-8-77-33-66-33--|

G|----------------------------------------|
D|----------------------------------------|
A|----------------------------------------|     [x2]
D|--8(x16)--7(x16)--5(x16)--3(x8)--2(x8)--|

G|----------------------------------|
D|----------------------------------|
A|--5(x16)--4(x16)------------------|
D|------------------3(x16)--2(x16)--|

G|------------------------------------|
D|------------------------------------|
A|------------------------------------|
D|--333-333-333-333--222-222-222-222--|

G|----------------------------------------------------------------|
D|----------------------------------------------------------------|
A|----------------------------------------------------------------|
D|--33333-33333-33333-33333--22222-22222-22222-22222--1(x16)--2~--|

G|-----------------------------------------|
D|-----------------------------------------|
A|-----------------------------------------|
D|--00000--00000--00000--00000-00000-0000--|



Solo [03:38]

G|-----------------------------------------|
D|-----------------------------------------|
A|-----------------------------------------|     [x2]
D|--0(x16)--10(x16)--9(x16)--8(x8)--7(x8)--|

G|----------------------------------|
D|----------------------------------|
A|----------------------------------|     [x2]
D|--3(x16)--7(x16)--8(x16)--8(x16)--|

G|-----------------------------------|
D|-----------------------------------|
A|-----------------------------------|
D|--3(x16)--10(x16)--8(x16)--8(x16)--|

G|-----------------------|
D|-----------------------|
A|-----------------------|
D|--00000--88888--7-5-3--|



Chorus [04:14]

G|-----------------------------------------|
D|-----------------------------------------|
A|-----------------------------------------|     [x2]
D|--0(x16)--10(x16)--9(x16)--8(x8)--7(x8)--|

G|------------------------------------------------------------|
D|------------------------------------------------------------|
A|-----------0(x8)-0---0-----1(x8)-1---1-----1-3-1-0-1-0------|     [x2]
D|--3(x16)-----------3---3-----------3---3---------------3-0--|

G|--------------------------------|
D|--------------------------------|
A|--------------------------------|
D|--3(x8)--2(x8)--1~--3~--2~--1~--|

G|---------------------------------|
D|------7-3---------------5--------|
A|--5-0-----5-0-5-4-0-4-7---7-4-7--|
D|---------------------------------|





| /  slide up
| \  slide down
| h  hammer-on
| p  pull-off
| ~  vibrato
| +  harmonic
| x  Mute note
===============================================================================
Suggest correction
comments
print report bad tab
guest
You may want to rate the tab now too:
select rating
Wanna post a correction for this tab? Suggest correction