Oops, an error
Loading. Please wait.

4 00 Am Tab

version 1
version 1
28,472 views 42 this week
4 commentsread comments
1 2 3 4 5
accurate
x 3
add to favorites
launch autoscroll
font size
0
reset
how to read this tab
guitar tuner
Autoscroll
slow
fast
+/-
esc
set tempo
stop
Help us to improve Ultimate-Guitar.com Take our survey!
×
Author
4 00 am. Avenged Sevenfold

This is an updated version of 4:00 am by A7X. I am not amazing at tabbing stuff,so 
please bear with me. I am a rhythm guitarist, so this tab will cover ZACKY 
VENGEANCE and GUITAR 3, NOT SYNYSTER GATES. look at other tabs for those.
With your help this tab can be finished to a top quality!

INTRO (ZACKY and GUITAR 3)
e|-------------------------------------------------------------|
B|-------------------------------------------------------------|
G|-------------------------------------------------------------|
D|------------------7------------------------------------------|   x2
A|--------5--0----------8--------------------------------------|
D|------------------------------0--0--0------------------------|
                            pm  .  .  .  

e|-------------------------------------------------------------|
B|-------------------------------------------------------------|
G|-------------------------------------------------------------|
D|--------5--0------8---5--------------------------------------|   x2
A|-------------------------------------------------------------|
D|------------------------------0--0--0------------------------|
                            pm  .  .  .  

e|-----------------------------------------------------------------|
B|-----------------------------------------------------------------|
G|-----------------------------------------------------------------|
D|---------------7-----------------------------------5-------------|
A|--------5--0-------8---5-------5---4-------4---7-------7---4---7-|
D|---------------------------7-----------7-------------------------|

VERSE x2 (ZACKY and GUITAR 3)
e|-------------------------------------------------------------------------|
B|-------------------------------------------------------------------------|
G|-------------------------------------------------------------------------|
D|-0---0-------0---0-------5---5---5/6-5---5---5/6-0---0-------2---2-------|
A|-0-0-0-0-0-0-0-0-0-0-0-0-5-5-5-5-5/6-5-5-5-5-5/6-0-0-0-0-0-0-2-2-2-2-2-2-|
D|-0-0-0-0-0-0-0-0-0-0-0-0-5-5-5-5-5/6-5-5-5-5-5/6-0-0-0-0-0-0-2-2-2-2-2-2-|
p.m  .   . . .   .   . . .   .   .       .   .       .   . . .   .   . . . 

e|-----------------------------------------------------------------|
B|-----------------------------------------------------------------|
G|-----------------------------------------------------------------|
D|-----------------------------------------------------------------|
A|-----------------5---------------5-------------------8-7-6~------|
D|--0-0-5b7--0-0-7---0-0-5b7-0-0-7---0-0-5b7-0-0-7-7-8--------3-2--|


PRE CHORUS (ZACKY and GUITAR 3)
e|----------------------------|       on the second time instead of:                  
B|----------------------------|    
G|------5----4----3----2------|       G|-2-|                   
D|-0----5----4----3----2------|  x2   D|-2-|              D|-/7-|
A|-0----3----2----1----0------|       A|-0-|    do this:  A|-/7-|
D|-0--------------------------|       D|---|              D|-/7-|

CHORUS (ZACKY and GUITAR 3)
e|-------------------------|
B|---------------- --------|
G|-------------------------|
D|--3-------7-------8------|       x2
A|--3-------7-------8------|
D|--3-------7-------8------|

THEN DO THIS:
e|-----------------------------------|
B|-----------------------------------|
G|-----------5-----------------------|
D|---3-------5--------1~-------------|
A|---3-------3--------1~-------------|
D|---3----------------1~-------------|

INTRO RIFF

VERSE

PRE CHORUS

CHORUS

INTERLUDE - ZACKY
GUITAR 3 PLAYS THIS RIFF BELOW 4 TIMES
e|-------------------------------------------|
B|-------------------------------------------|
G|-------------------------------------------|
D|-------------------------------------------|  x2
A|-------------------------------------------|
D|-0-12-11-10-0-10-9-8-7-7-7-7-6-6-6-6-------|
                    pm . . . . . . . .

e|-------------------------------------------|
B|-------------------------------------------|
G|----14-13-12----12-11-10-------------------|
D|-12----------12----------------------------|  x2
A|-------------------------------------------|
D|-------------------------7-7-7-7-6-6-6-6---|
                        pm . . . . . . . .

BRIDGE - ZACKY
e|----------------------------------------------|
B|-15/18~---13/18~---11/18~---13/17~------------|
G|----------------------------------------------|
D|----------------------------------------------|  x2
A|----------------------------------------------|
D|----------------------------------------------|

GUITAR 3
e|----------------------------------|
B|----------------------------------|
G|----------------------------------|
D|-8~----7~----5~----3--2~----------|  x2
A|-8~----7~----5~----3--2~----------|
D|-8~----7~----5~----3--2~----------|

ZACKY
e|-13~-13-15-17-15~-15-17-18-16~-16-18-20-18~-18-20-21---|
B|-------------------------------------------------------|
G|-------------------------------------------------------|
D|-------------------------------------------------------|
A|-------------------------------------------------------|
D|-------------------------------------------------------|

GUITAR 3
e|-------------------------------------------------------|
B|-------------------------------------------------------|
G|-7---------7---------7-----6---------6---------6-------|
D|-7---------7---------7-----6---------6---------6-------|
A|-5-5-5-5-5-5-5-5-5-5-5-5-5-4-4-4-4-4-4-4-4-4-4-4-4-4---|
D|-------------------------------------------------------|
pm   . . . .   . . . .   . .   . . . .   . . . .   . .

(Carrying on from above^)
e|-------------------------------------------------------|
B|-------------------------------------------------------|
G|-------------------------------------------------------|
D|-3---------3---------3-----2---------2---------2-------|
A|-3---------3---------3-----2---------2---------2-------|
D|-3-3-3-3-3-3-3-3-3-3-3-3-3-2-2-2-2-2-2-2-2-2-2-2-2-2---|
pm   . . . .   . . . .   . .   . . . .   . . . .   . .

ZACKY                            
e|-20-16----------------16--|       
B|-------18----------18-----|   
G|----------17----17--------|       
D|-------------18-----------|  x2   
A|--------------------------|       
D|--------------------------|

ZACKY
(I think this sweep is wrong. The notes sound write, it's just hard to play)
e|-20-15----------------15--|
B|-------17----------17-----|
G|----------17----17--------|
D|-------------17-----------|  x2
A|--------------------------|
D|--------------------------|

e|---------------------------------------------------|
B|---------------------------------------------------|
G|---------------------------------------------------|
D|-----3-----3-----3-----3-----2-----2-----2-----2---|
A|-----3-----3-----3-----3-----2-----2-----2-----2---|
D|-3-3-3-3-3-3-3-3-3-3-3-3-2-2-2-2-2-2-2-2-2-2-2-2---|
pm . .   . .   . .   . .   . .   . .   . .   . .

ZACKY
e|-20-16----------------16--|       
B|-------18----------18-----|   
G|----------17----17--------|       
D|-------------18-----------|  x2   
A|--------------------------|       
D|--------------------------|

ZACKY
e|-20-15----------------15--|
B|-------17----------17-----|
G|----------17----17--------|
D|-------------17-----------|  x2
A|--------------------------|
D|--------------------------|

GUITAR 3 (Tremolo pick the palm muted 3's and 2's)
e|-------------------------------------------|
B|-------------------------------------------|
G|-------------------------------------------|
D|---------3---------3---------3---------3---|
A|---------3---------3---------3---------3---|
D|-3-3-3-3-3-3-3-3-3-3-3-3-3-3-3-3-3-3-3-3---|
pm . . . .   . . . .   . . . .   . . . .

(Carrying on from above^)
e|-------------------------------------------|
B|-------------------------------------------|
G|-------------------------------------------|
D|---------2---------2---------2---------2---|
A|---------2---------2---------2---------2---|
D|-2-2-2-2-2-2-2-2-2-2-2-2-2-2-2-2-2-2-2-2---|
pm . . . .   . . . .   . . . .   . . . .

CAN'T WORK OUT THIS LAST SWEEP, HELP?

GUITAR 3 
e|----------|
B|----------|
G|----------|
D|--8~--7~--|
A|--8~--7~--|
D|--8~--7~--|

PRE SOLO - ZACKY
e|-------------------------------|
B|-------------------------------|
G|-------------------------------|
D|-------------------------------|
A|--8~-8--7~-7--10~-10--5~-5--4~-|
D|-------------------------------|

GUITAR 3
e|--------------------------------------------------------------|
B|--------------------------------------------------------------|
G|---------7-----------5-----------4-----------3~---------2~----|
D|---------7-----------5-----------4-----------3~---------2~----|
A|-5-5-5-5-5---3-3-3-3-3---2-2-2-2-2---1-1-1-1-1~-0-0-0-0-0~----|
D|--------------------------------------------------------------|
pm . . . .     . . . .     . . . .     . . . .    . . . .

FOR THE SOLO (ZACKY AND GUITAR 3), PLAY PRE CHORUS

CHORUS 'SOLO' - ZACKY
e|----------------------------------------------------|
B|----------------------------------------------------|
G|-14-14/10/14--14-15-17-17-19-15-14-14-15------------|
D|-----------------------------------------12-14-15~--|
A|----------------------------------------------------|
D|----------------------------------------------------|

ZACKY
e|------------------------------------------|
B|-----------------------------------/18~---|
G|-14-14/10/14--14-15-17-17-19-15-14--------|
D|------------------------------------------|
A|------------------------------------------|
D|------------------------------------------|

ZACKY
e|-20-(18)/17-18-20--------|
B|------------------/20----|
G|-------------------------|
D|-------------------------|  
A|-------------------------|
D|-------------------------|

For the CHORUS 'SOLO', GUITAR 3 plays the normal CHORUS.

I HAVE NO IDEA ABOUT THE NEXT PART FOR ZACKY BEFORE THE PRE CHORUS. 

GUITAR 3
e|--------------------------------------------------|
B|--------------------------------------------------|
G|--------------------------------------------------|
D|-------------12-----------8~---------7~-----------|
A|-------------12-----------8~---------7~-----------|
D|-12-12-12-12-12---8-8-8-8-8~-7-7-7-7-7~-----------|
pm  .  .  .  .      . . . .    . . . .

PRE CHORUS

CHORUS

THEN:
e|-----------------------------------|
B|-----------------------------------|
G|-----------5-----------------------|
D|---3-------5--------1~-------------|  x2
A|---3-------3--------1~-------------|
D|---3----------------1~-------------|


Finish on:
END
e|-----------------------------------------------------------------|
B|-----------------------------------------------------------------|
G|-----------------------------------------------------------------|
D|---------------7-----------------------------------5-------------|
A|--------5--0-------8---5-------5---4-------4---7-------7---4---7-|
D|---------------------------7-----------7-------------------------|

ORDER OF PLAY:
INTRO 
VERSE
PRE CHORUS
CHORUS
INTRO
VERSE
PRE CHORUS
CHORUS
INTERLUDE
BRIDGE
PRE SOLO
SOLO (ZACKY and GUITAR 3 play PRE CHORUS)
CHORUS 'SOLO' (GUITAR 3 plays CHORUS)
PRE CHORUS
CHORUS
END

THANK YOU!!
Suggest correction
Give kudos to tab author, rate the tab!
1 2 3 4 5
comments
print report bad tab
4 comments total. Showing first comments.
0 reply
PR BLK HWK 21 wrote on December 19 2010, 06:46 pm

its in drop D right?
and some people got a copy of the full song up on youtube :D
good tab so far bro
can wait for the rest of it

0 reply
Mungumbi 170 wrote on December 23 2010, 06:02 am

I'm just waiting for my Guitar Pro tab to go through, but "this bit is hard, help?" goes something like this:

D-----7------------------5------
A-5-0---8--5-0-5-4-0-4-7--7-4-7-
D-------------------------------

Hope that helps :)

+1 reply
RNDM 155 wrote on December 23 2010, 11:06 am

Hey, what you have so far is pretty good! Well, it's enough to give me a basis for my own (Guitar Pro 5, though) so thanks for that. I'll be sure to give you credit in the tab though, but for now also, most of the verse chords are minor, not 5ths.

i.e.:

D|---3---| |---8------| |---3---| |---2---|
A|---0---|x2|---5------|x2|---0---| |---0---|
D|---0---| |---5--4h5-| |---0---| |---2---|

guest
You may want to rate the tab now too:
select rating
Please do not post tabs as comments. Select "correction" instead!