Oops, an error
Loading. Please wait.

4 00 Am Bass Tab

version 2
version 2

Whole song

368 views 1 this week
no commentswrite comment
1 2 3 4 5
1 last vote to show rating
add to favorites
launch autoscroll
font size
0
reset
guitar tuner
Autoscroll
slow
fast
+/-
esc
set tempo
stop
Help us to improve Ultimate-Guitar.com Take our survey!
×
Author
Difficulty
Tuning
intermediate
D A D G B E
Credit Goes to a7xmike21
Pre-verse 

G|-----------------------------------------------------------------|
D|------7-3-------------7-3---------5-0-8-5---------5-0-8-5--------|
A|--5-0-------------5-0--------------------------------------------|
D|----------0-0-0-----------0-0-0-----------0-0-0-----------0-0-0--|

G|---------------------------------|
D|------7-3---------------5--------|
A|--5-0-----5-0-5-4-0-4-7---7-4-7--|
D|---------------------------------|



Verse 

G|---------------------------------------------------------|
D|---------------------------------------------------------|
A|---------------------------------------------------------|
D|--0-00-0-0000---0-00-0-0000---5-55-5-5556---5-55-5-5556--|

G|-----------------------------|
D|-----------------------------|
A|-----------------------------|
D|--0-00-0-0000---2-22-2-2222--|

G|---------------------------------------------------------|
D|---------------------------------------------------------|
A|---------------------------------------------------------|
D|--0-00-0-0000---0-00-0-0000---5-55-5-5556---5-55-5-5556--|

G|-----------------------------|
D|-----------------------------|
A|-----------------------------|
D|--0-00-0-0000---2-22-2-2222--|



Pre-chorus

G|------------------------------------------------------------|
D|------------------------------------------------------------|
A|-----------------------------------------------8-7-6-6------|
D|--00-/7-007-/12-0-0-/7-007-/12-0-0-/7-00-5-7-8---------3-2--|



Chorus

G|----------------------------------------------|
D|----------------------------------------------|
A|----------33333333-22222222-11111111-00000000-|
D|--0000000-------------------------------------|

G|-----------------------------------------------------|
D|-----------------------------------------------------|
A|-55555555-33333333-10-10-10-10-10-10-10-10-1111-0000-|
D|-----------------------------------------------------|

G|---------------------------------------|
D|------3------7------8-10-8-7-8-7-5-3---|
A|-----3-3----7-7----8-------------------|     [x2]
D|--333----777----888--------------------|

G|------------------------|
D|------------------------|
A|------------------------|
D|--33333333-22222222-1~--|



Pre-verse 

G|-----------------------------------------------------------------|
D|------7-3-------------7-3---------5-0-8-5---------5-0-8-5--------|
A|--5-0-------------5-0--------------------------------------------|
D|----------0-0-0-----------0-0-0-----------0-0-0-----------0-0-0--|

G|---------------------------------|
D|------7-3---------------5--------|
A|--5-0-----5-0-5-4-0-4-7---7-4-7--|
D|---------------------------------|



Verse 

G|---------------------------------------------------------|
D|---------------------------------------------------------|
A|---------------------------------------------------------|
D|--0-00-0-0000---0-00-0-0000---5-55-5-5556---5-55-5-5556--|

G|-----------------------------|
D|-----------------------------|
A|-----------------------------|
D|--0-00-0-0000---2-22-2-2222--|

G|---------------------------------------------------------|
D|---------------------------------------------------------|
A|---------------------------------------------------------|
D|--0-00-0-0000---0-00-0-0000---5-55-5-5556---5-55-5-5556--|

G|-----------------------------|
D|-----------------------------|
A|-----------------------------|
D|--0-00-0-0000---2-22-2-2222--|



Pre-chorus 

G|------------------------------------------------------------|
D|------------------------------------------------------------|
A|-----------------------------------------------8-7-6-6------|
D|--00-/7-007-/12-0-0-/7-007-/12-0-0-/7-00-5-7-8---------3-2--|



Chorus 

G|----------------------------------------------|
D|----------------------------------------------|
A|----------33333333-22222222-11111111-00000000-|
D|--0000000-------------------------------------|

G|-----------------------------------------------------|
D|-----------------------------------------------------|
A|-55555555-33333333-10-10-10-10-10-10-10-10-1111-0000-|
D|-----------------------------------------------------|

G|---------------------------------------|
D|------3------7------8-10-8-7-8-7-5-3---|
A|-----3-3----7-7----8-------------------|     [x2]
D|--333----777----888--------------------|

G|------------------------|
D|------------------------|
A|------------------------|
D|--33333333-22222222-1~--|



Bridge 

G|------------------------------------|
D|------------------------------------|
A|------------------------------------|    [x4]
D|--0-/12-11-10-0-10-9-8-77-33-66-33--|

G|--------------------------------------------|
D|--------------------------------------------|
A|--------------------------------------------|     [x2]
D|--88888888--77777777--55555555--3333--2222--|

G|-----------------------------------------|
D|-----------------------------------------|
A|--55555555--44444444---------------------|
D|---------------------33333333--22222222--|

G|------------------------------------|
D|------------------------------------|
A|------------------------------------|
D|--333-333-333-333--222-222-222-222--|

G|----------------------------------------------------------------|
D|----------------------------------------------------------------|
A|------------------------------------------------------------0~--|
D|--33333-33333-33333-33333--22222-22222-22222-22222--1-----------|

G|-----------------------------------------|
D|-----------------------------------------|
A|--55555--33333--22222--11111-000000000---|
D|-----------------------------------------|



Solo 

G|----------------------------------------------|
D|----------------------------------------------|
A|----------33333333-22222222-11111111-00000000-|     [x2]
D|--0000000-------------------------------------|

G|------------------------------------------|
D|------------------------------------------|
A|------------------------------------------|     [x2]
D|--33333333--77777777--88888888--88888888--|

G|---------------------------------------|
D|---------------------------------------|
A|-----------33333333--1~----------------|
D|--33333333-----------------------------|

G|-----------------------|
D|-----------------------|
A|--55555--11111---------|
D|----------------7-5-3--|



Chorus 

G|----------------------------------------------|
D|----------------------------------------------|
A|----------33333333-22222222-11111111-00000000-|
D|--0000000-------------------------------------|

G|-----------------------------------------------------|
D|-----------------------------------------------------|
A|-55555555-33333333-10-10-10-10-10-10-10-10-1111-0000-|
D|-----------------------------------------------------|

G|---------------------------------------|
D|------3------7------8-10-8-7-8-7-5-3---|
A|-----3-3----7-7----8-------------------|     [x2]
D|--333----777----888--------------------|

G|--------------------------------|
D|--------------------------------|
A|--------------------------------|
D|--3333--22222--1~--3~--2~--1~--|

G|---------------------------------|
D|------7-3---------------5--------|
A|--5-0-----5-0-5-4-0-4-7---7-4-7--|
D|---------------------------------|
Suggest correction
Give kudos to tab author, rate the tab!
1 2 3 4 5
comments
print report bad tab
guest
You may want to rate the tab now too:
select rating
Wanna post a correction for this tab? Suggest correction