Oops, an error
Loading. Please wait.

A Little Piece Of Heaven Tab

version 1
version 1

Solo

  • I made this because there's no one for this part of the song.

Whole song

175 views 24 this week
no commentswrite comment
1 2 3 4 5
3 more votes to show rating
add to favorites
launch autoscroll
font size
0
reset
how to read this tab
guitar tuner
Autoscroll
slow
fast
+/-
esc
set tempo
stop
Help us to improve Ultimate-Guitar.com Take our survey!
×
Author
About this tab version
I made this because there's no one for this part of the song. Was this info helpful? Yes No
Hi everyone! After a few weeks trying to get it, i finally made the tabs from the solo of "A little piece of
Heaven". Hope you enjoy it!

Drop D.

Synyster plays this in LBC doing the violin's part.
--------------------------------------------------------------------------------------------------------------

E|-------------------------------------|     -----------------------------------------------------|
B|-------------------------------------|     -----------------------------------------------------|
G|-----------9------------9------------|     -------------------5-------------5-------------------|
D|-------7------------7----------------| x4  ---------------3-------------3-----------------------| x4
A|---5------------5--------------------|     -----------1-------------1---------------------------|
D|-------------------------------------|     -----------------------------------------------------|

E|-------------------------------------|     -------------------------------------------------------------|
B|-------------------------------------|     -------------------------------------------5-----------6-----|
G|-------------------------------------|     -------------------5-----------7-----------------------------|
D|-----------7-----------8-------------| x3  ---------------5-----------5-----------5-----------5---------| 
A|-------5-----------5-----------------|     -----------3-----------3-----------3-----------3-------------|
D|---5-----------5---------------------|     -------------------------------------------------------------|

E|-------------------------------------|     
B|---5---------5-------5---5s6---3-----|    
G|--------2--------2-------------------|
D|-------------------------------------| 
A|-------------------------------------|   
D|-------------------------------------|   

And repeat this again.

Here are the lyrics of this part:

I will suffer for so long (What will you do? not long enough)
To make it up to you (I pray to God that you do)
I'll do whatever you want me to do (Well then I'll grant you a chance)
And if it's not enough (If it's not enough, if it's not enough)
If it's not enough (Not enough)
Try again (Try again)
And again (And again)
Over and over again!


Suggest correction
Give kudos to tab author, rate the tab!
1 2 3 4 5
comments
print report bad tab
guest
You may want to rate the tab now too:
select rating
Wanna post a correction for this tab? Suggest correction