Oops, an error
Loading. Please wait.

A Little Piece Of Heaven Tab

version 3
version 3

Whole song

10,952 views 1 this week
2 commentsread comments
1 2 3 4 5
not so good
x 5
add to favorites
launch autoscroll
font size
0
reset
how to read this tab
guitar tuner
Tab Pro tools
  • play this tab
  • loop segment
  • change instrument
  • show fretboard
  • metronome
×
Best way to learn
"A Little Piece Of Heaven"
Autoscroll
slow
fast
+/-
esc
set tempo
stop
Contributor
-------------------------------------------------------------------------------
                             A Little Piece Of Heaven - Avenged Sevenfold
-------------------------------------------------------------------------------
Tabbed by: Alex Emry
Email: alexemry@hotmail.com

Tuning: DADGBe (Drop D)

Guitar 1 - Synyster Gates
Guitar 2 - Zacky Vengance

Intro (I tabbed it on Guitar, incase you want to play along but it isn't really a guitar.)
Guitar 1
e|-2-3--6--5--3--2-353-------------------------------------|
B|--------------------2--3-2-------------------------------|
G|---------------------------3-2-0--2320-------------------|
D|---------------------------------------------------------|
A|---------------------------------------------------------|
D|---------------------------------------------------------|

Both Guitars
e|-2-3--6--5--3--2-353-------------------------------------|
B|--------------------2--3-2-------------------------------|
G|---------------------------3-2--3-2-0--------------------|
D|---------------------------------------------------------|
A|---------------------------------------------------------|
D|---------------------------------------------------------|

Verse A: Both Guitars - Heavy
e|---------------------------------------------------------------------------------------|
B|---------------------------------------------------------------------------------------|
G|---------------------------------------------------------------------------------------|
D|---------------------------------------------------------------------------------------|
A|---------------------------------------------------------------------------------------|
D|-0000-0-0-0000-0-0-0000-0-0-3333-3-3-3333-3-3-5555-5-5-5555-5-5-6666-6-6-6666-6-6------|
pm .... . . .... . . .... . . .... . . .... . . .... . . .... . . .... . . .... . .

Verse B: Both Guitars - Heavy
  Before the story begins,    is it such a sin?
e|---------------------------------------------------------|
B|---------------------------------------------------------|
G|---------------------------------------------------------|
D|-0-0------0-0--------0-0-----3-3---3-3---3-3-------------|
A|-0-0------0-0--------0-0-----3-3---3-3---3-3-------------|
D|-0-0------0-0--------0-0-----3-3---3-3---3-3-------------|
pm . .      . .        . .     . .   . .   . .
  For me to take what's mine, 'til the end of time?
e|---------------------------------------------------------|
B|---------------------------------------------------------|
G|---------------------------------------------------------|
D|-5-5------5-5--------5-5-----6-6---6-6---6-6-------------|
A|-5-5------5-5--------5-5-----6-6---6-6---6-6-------------|
D|-5-5------5-5--------5-5-----6-6---6-6---6-6-------------|
pm . .      . .        . .     . .   . .   . .

  We we're more than friends, before the story ends;
e|---------------------------------------------------------|
B|---------------------------------------------------------|
G|---------------------------------------------------------|
D|-0-0------0-0--------0-0-----3-3---3-3---3-3-------------|
A|-0-0------0-0--------0-0-----3-3---3-3---3-3-------------|
D|-0-0------0-0--------0-0-----3-3---3-3---3-3-------------|

 And I will take what's mine; create what God would never design
e|---------------------------------------------------------|
B|---------------------------------------------------------|
G|---------------------------------------------------------|
D|-5-5------5-5--------5-5-----6-6---6-6---6-6-------------|
A|-5-5------5-5--------5-5-----6-6---6-6---6-6-------------|
D|-5-5------5-5--------5-5-----6-6---6-6---6-6-------------|

Our love had been so strong,for far to long
I was weak with fear, that something would go wrong
Before that possibility came true, I took all possibility from you
e|---------------------------------------------------------------------------------------|
B|---------------------------------------------------------------------------------------|
G|---------------------------------------------------------------------------------------|
D|---------------------------------------------------------------------------------------|
A|---------------------------------------------------------------------------------------|
D|-0000-0-0-0000-0-0-0000-0-0-3333-3-3-3333-3-3-5555-5-5-5555-5-5-6666-6-6-6666-6-6------|
pm .... . . .... . . .... . . .... . . .... . . .... . . .... . . .... . . .... . .

Pre-Chorus: Both Guitars - Heavy
 Almost laughed myself to tears (HAHAHAHAHAHAHAHAHAHHAHAHAHA!)
 Conjouring her deepest fears (Come here, you fucking bitch!)
e|-----------------------------------------------------------------|
B|-----------------------------------------------------------------|
G|-----------------------------------------------------------------|
D|-------------------------555555555555555555555555555-------------|
A|-------------------------555555555555555555555555555-------------|
D|-000000000000000000333333555555555555555555555555555-------------|
pm ........................

  Must have stabbed her, fifty fucking times!  I can't believe it.
  Ripped her heart out,right before her eyes!
  Eyes, over easy!          Eat it! Ate it! Hate it!
e|---------------------------------------------------------|
B|---------------------------------------------------------|
G|---------------------------------------------------------|
D|-2--------2------------------2-2-2-2-2-2-2-2-------------|
A|-2--------2------------------2-2-2-2-2-2-2-2-------------|
D|-0--------0------------------0-0-0-0-0-0-0-0-------------|
 She was never this good in bed, even when she was sleepin' Now she's just so perfect.
  I've        never       been    quite so               fucking           deep in!
e|---------------------------------------------------------------------------------------|
B|---------------------------------------------------------------------------------------|
G|---------------------------------------------------------------------------------------|
D|---------------------------------------------------------------------------------------|
A|---------------------------------------------------------------------------------------|
D|-0000-0-0-0000-0-0-0000-0-0-3333-3-3-3333-3-3-5555-5-5-5555-5-5-6666-6-6-6666-6-6------|
pm .... . . .... . . .... . . .... . . .... . . .... . . .... . . .... . . .... . .
  It goes on, and on and on
  I can keep ya lookin' young
  And preserved forever
  With a fountain to spray
  On your youth forever
e|------------------------------------|
B|------------------------------------|
G|------------------------------------|
D|-0----33---33---8--7----------------|
A|-0----33---33---8--7----------------|
D|-0----33---33---8--7----------------|

Chorus: Guitar 1 - Clean/Acoustic
  Because I really always knew that my little crime would be cold
  That's why I brought a heater for your thighs      and I know...
  I    know         it's not your time...          but bye-bye
  And a word to the wise,     when the        fire dies
  You think it's over but it's just be-    guuuuuuuuuuuuuuunnn
  But baby don't cry cause you had my heart atleast for the most part
  Cause everybody's gotta die sometime... we fell a-   paaaaart
  Let's make a new        start...
e|-3------------------------0------------------3-------------0----|
B|-3------------------------1------------------2-------------1----|
G|-0------------------------0------------------3-------------2----|
D|-0------------------------2------------------0-------------2----|
A|-2------------------------3------------------0-------------0----|
D|-3*-----------------------0*-----------------0*------------0*---|

Bridge: Both guitars - Heavy
e|--------------------------------------------------------|
B|--------------------------------------------------------|
G|--------------------------------------------------------|
D|-3--8-7--3--8-7--3--8-7--5--10-9--5--10-9--5--10-9------|
A|-3--8-7--3--8-7--3--8-7--5--10-9--5--10-9--5--10-9------|
D|-3--8-7--3--8-7--3--8-7--5--10-9--5--10-9--5--10-9------|

  I will su- ffer for so long (Not long  e-  nough)
  To make it up  to you   (I pray to God that you do)
  I'll do whatever you want me to do(Then I'll grant you a chance)
  And if it's not enough   (It's not e-    nough)
  If it's not e-   nough    Try again (Try again)
  Try a-  gain and again    (And ag          ain)
  Over and over again! 
e|--------------------------------------------------------|
B|--------------------------------------------------------|
G|--------------------------------------------------------|
D|-3--8-7--3--8-7--3--8-7--5--10-9--5--10-9--5--10-9------|
A|-3--8-7--3--8-7--3--8-7--5--10-9--5--10-9--5--10-9------|
D|-3--8-7--3--8-7--3--8-7--5--10-9--5--10-9--5--10-9------|
pm .  . .  .  . .  .  . .  .  .  .  .  .  .  .  .  .
  We're comin' back, comin' back
  We'll live forever, live forever
  Start the killing, start the killing
e|--------------------------------------------------------------|
B|--------------------------------------------------------------|
G|--------------------------------------------------------------|
D|-------------------------------------3-0-0--------------------|
A|-------------------------------------3-0-0--------------------|
D|-------------------------------------3-0-0--------------------|
  Do you take this man in debt for the rest of your unnatural life?
  (Yes I do)
  Do you take this woman in debt for the rest of your unnatural life?
  (Yes I do)
  I now pronounce you...
e|--------------------------------------------------------------|
B|--------------------------------------------------------------|
G|--------------------------------------------------------------|
D|--------------------------------------------------------------|
A|--------------------------------------------------------------|
D|-1-0-0--1-0-0--1-0-0--1-0-0--1-0-0--1-0-0--1-0-0--1-0-0--1-0-0|  
pm . . .  . . .  . . .  . . .  . . .  . . .  . . .  . . .  . . .

| pm palm mute
| *  let fade
| /  slide up
| \  slide down
| h  hammer-on
| p  pull-off
| ~  vibrato
| +  harmonic
| x  Mute note
===============================================================================
comments
print report bad tab
2 comments total.
0 reply
Seth Shadows wrote on April 3 2009, 10:37 pm

this really blows.
It's terribly out of key and in the wrong tuning.

0 reply
Seth Shadows wrote on April 4 2009, 10:24 am

Don't PM me please.
I'm not going to post all the corrections that this tab needs or I'd have to post 90% of this tab.

the E5 chord:
D|-2
A|-2
D|-0
in dropped D? Seriously, everything's really wrong.
Also, the whole song is in dropped Db.
Do some research on a song before tabbing it.

Tabbing some improv or what 'sounds good' in the song, doesn't make it right.

I want to post or [tab]
guest
You may want to rate the tab now too:
select rating
Please do not post tabs as comments. Select "correction" instead!