Oops, an error
Loading. Please wait.

Acid Rain Tab

version 1
version 1

Whole song

Interactive

50,594 views 51 this week
8 commentsread comments
1 2 3 4 5
excellent!
x 20
add to favorites
launch autoscroll
font size
0
reset
how to read this tab
guitar tuner
Tab Pro tools
  • play this tab
  • loop segment
  • change instrument
  • show fretboard
  • metronome
×
Best way to learn
"Acid Rain"
Autoscroll
slow
fast
+/-
esc
set tempo
stop
Contributor
Tuning
D A D G B E
-----------------------------------------------------------------------------
                        Acid Rain - Avenged Sevenfold
-----------------------------------------------------------------------------
Tabbed by: downfromthesky
E-mail: zekai_a7x@hotmail.com

Tuning: Drop D

Just a few notes:
- It is hard to hear the guitar in the recording but if you can't hear it, this is what
I thought should be there.
- The F6sus4 in the piano intro was named by a Chord name generator site so the name may
be right and it may be wrong.
- The bends and the solo overall were extremely hard to tab but I did my best so 
sorry for the mistakes!
- It can be played in standard with some small changes to your low E string
 notes but I tabbed it in Drop D because most other Avenged songs are in drop D. For simplicity.



Piano intro

   Dm   F    Bb   A5 Bb   Gm F6sus4 Asus4  A
e|-1----1--------------------------------------|
B|-3----1----3-------3----3----3----3------2---|
G|-2----2----3----2--3----3----3----2------2---|
D|-0----3----3----2--3----5----3----2------2---|
A|-----------1----0--1----5----3----0------0---|
D|------------------------5----3---------------|


Intro
Guitar 1 (Clean)

e|----1------1------1-----------------------------------------|
B|---3-3----3-3----3-3----3---3----3------3------3------2-----|
G|--2---2--2---2--2---2--2---2----3-3----3-3----2-2----2-2----|
D|-0-----------------------------5---5--3---3--2---2--2---2---|
A|--------3------1------0---1-----------------0------0--------|
D|------------------------------5------3----------------------|

e|----1------1------1----------------------------------------|
B|---3-3----3-3----3-3----3---3----3------3------3------2----|
G|--2---2--2---2--2---2--2---2----3-3----3-3----2-2----2-2---|
D|-0-----------------------------5---5--3---3--2---2--2---2--|
A|--------3------1------0---1-----------------0------0-------|
D|------------------------------5------3---------------------|


Guitar 2 (Solo)

e|--------------------------------------------------|
B|--8brb10--r8-6-8-8b10r8-6-8-----------------------|
G|----------------------------7~---7b10r7b10r7\\----|
D|--------------------------------------------------|
A|--------------------------------------------------|
D|--------------------------------------------------|


e|-------------------------------------------------|
B|-8b10--r8-6-8b10b11r8-6-5~----5-6-5-6b8~---------|
G|-------------------------------------------------|
D|-------------------------------------------------|
A|-------------------------------------------------|
D|-------------------------------------------------|


Verse 1
Guitar 1

e|---------------------------------------------------------|
B|----3------3------5------5------3------3------5------5---|
G|---3-3----3-3----5-5----5-5----3-3----3-3----5-5----5-5--|
D|--5---5--5---5--5---5--5---5--5---5--5---5--5---5--5---5-|
A|---------------3------3--------------------3------3------|
D|-5------5--------------------5------5--------------------|

e|---------------------------------------------------------|
B|----3------3------5------5------3------3------5------5---|
G|---3-3----3-3----5-5----5-5----3-3----3-3----5-5----5-5--|
D|--5---5--5---5--5---5--5---5--5---5--5---5--5---5--5---5-|
A|---------------3------3--------------------3------3------|
D|-5------5--------------------5------5--------------------|

e|------------------------------------|
B|------------------------------------|
G|------------------------------------|
D|---7-8-7----7-8-7----7-8----7-8-7---|
A|--7-----7--7-----7--7---7--7-----7--|
D|-7--------7--------7------7---------|


Chorus 1

e|----1------1------1-----------------------------------------|
B|---3-3----3-3----3-3----3---3----3------3------3------2-----|
G|--2---2--2---2--2---2--2---2----3-3----3-3----2-2----2-2----|
D|-0-----------------------------5---5--3---3--2---2--2---2---|
A|--------3------1------0---1-----------------0------0--------|
D|------------------------------5------3----------------------|


Verse 2

e|---------------------------------------------------------|
B|----3------3------5------5------3------3------5------5---|
G|---3-3----3-3----5-5----5-5----3-3----3-3----5-5----5-5--|
D|--5---5--5---5--5---5--5---5--5---5--5---5--5---5--5---5-|
A|---------------3------3--------------------3------3------|
D|-5------5--------------------5------5--------------------|

e|---------------------------------------------------------|
B|----3------3------5------5------3------3------5------5---|
G|---3-3----3-3----5-5----5-5----3-3----3-3----5-5----5-5--|
D|--5---5--5---5--5---5--5---5--5---5--5---5--5---5--5---5-|
A|---------------3------3--------------------3------3------|
D|-5------5--------------------5------5--------------------|

e|-------------------------------------|
B|-------------------------------------|
G|-------------------------------------|
D|---7-8-7----7-8-7----7-8----7-8-7----|
A|--7-----7--7-----7--7---7--7-----7---|
D|-7--------7--------7------7----------|


Chorus 2

e|----1------1------1-----------------------------------------|
B|---3-3----3-3----3-3----3---3----3------3------3------2-----|
G|--2---2--2---2--2---2--2---2----3-3----3-3----2-2----2-2----|
D|-0-----------------------------5---5--3---3--2---2--2---2---|
A|--------3------1------0---1-----------------0------0--------|
D|------------------------------5------3----------------------|

e|----1------1------1-----------------------------------------|
B|---3-3----3-3----3-3----3---3----3------3------3------2-----|
G|--2---2--2---2--2---2--2---2----3-3----3-3----2-2----2-2----|
D|-0-----------------------------5---5--3---3--2---2--2---2---|
A|--------3------1------0---1-----------------0------0--------|
D|------------------------------5------3----------------------|


Bridge
Guitar 1 (Clean)

   Bb   A/F  Gm   F    D
e|------------------------|
B|------------------------|
G|------------------------|
D|-8----7----5----3----4--|
A|-8----8----5----3----0--|
D|-8----7----5----3----0--|


e|-----------------------------------------------------|
B|-----------------------------------------------------|
G|-----------------------------------------------------|
D|-8-----10-----12-----12-----13-----14-----15-----17--|
A|-5------8------8-----10-----10-----12-----12-----15--|
D|-5------7------8------9-----10-----11-----12-----14--|


e|----------------------------------------------|
B|----------------------------------------------|
G|----------------------------------------------|
D|-18-----17-----18-----19-----20-----19----12--|
A|-15-----15-----15-----17-----17-----15-----8--|
D|-15-----14-----15-----16-----17-----15-----8--|

e|-------------|
B|-------------|
G|-------------|
D|-7-7-7-7-7-7-|
A|-5-5-5-5-5-5-|
D|-------------|
pm . . . . . .


Solo
Guitar 2

e|---------------------------------------------------------------------|
B|---------------------------------------3-6b8~--r6-3-6-5~--5b6-5b6r5~-|
G|-5b7~----3--5------3b5r3b----5b7~---3h5------------------------------|
D|--------------5~-----------------------------------------------------|
A|---------------------------------------------------------------------|
D|---------------------------------------------------------------------|

e|---------------------------------------------------|
B|-6b8~---r6p3--6b8~----pb6(8)r6-3h6p3-3-------------|
G|------------53----------------------5-5~--5b7r5b7~-|
D|---------------------------------------------------|
A|---------------------------------------------------|
D|---------------------------------------------------|

e|---3-5b6--hb5(6)-r5-3-5----------------------------------------|
B|-3----------------------3~--5--6--1/5-6-8--10~-11~-8~-10~-11~--|
G|---------------------------------------------------------------|
D|---------------------------------------------------------------|
A|---------------------------------------------------------------|
D|---------------------------------------------------------------|

e|---------------------------------------9-10-12----| This part I just
B|--------------6-8~-----------6-8-10-11------------| put the scale
G|--------6-7-9----------6-7-9----------------------| that the shred
D|-8~-7-8------------7-8----------------------------| is based around.
A|--------------------------------------------------| Couldn't figure
D|--------------------------------------------------| it out.


Chorus 3
Guitar 1 (clean)
e|----1------1------1-----------------------------------------|
B|---3-3----3-3----3-3----3---3----3------3------3------2-----|
G|--2---2--2---2--2---2--2---2----3-3----3-3----2-2----2-2----|
D|-0-----------------------------5---5--3---3--2---2--2---2---|
A|--------3------1------0---1-----------------0------0--------|
D|------------------------------5------3----------------------|

Guitar 2 (solo)
e|-12b13~-r12-10------13-12-10-------------------------------------------|
B|---------------10~-----------10~---10--13--11-10-11~-----10h11-10------|
G|------------------------------------------------------12----------10~--|
D|-----------------------------------------------------------------------|
A|-----------------------------------------------------------------------|
D|-----------------------------------------------------------------------|

e|--------------------------------------------------10-12-12b13~--|
B|-8-10/5~--------------8-9-10-11-10-9-8-9-10-11-13---------------|
G|-----------7-6-7-9-10-------------------------------------------|
D|----------------------------------------------------------------|
A|----------------------------------------------------------------|
D|----------------------------------------------------------------|

Guitar 1 (clean)
e|----1------1------1-----------------------------------------|
B|---3-3----3-3----3-3----3---3----3------3------3------2-----|
G|--2---2--2---2--2---2--2---2----3-3----3-3----2-2----2-2----|
D|-0-----------------------------5---5--3---3--2---2--2---2---|
A|--------3------1------0---1-----------------0------0--------|
D|------------------------------5------3----------------------|

Guitar 2 (solo)
e|---------15b17-15b17-17b18r17-15~-----------17-18-15-|
B|-----------------------------------------------------|
G|-----------------------------------------------------|
D|-----------------------------------------------------|
A|-----------------------------------------------------|
D|-----------------------------------------------------|

e|-17-18-15-17----15-------------------------------------------------------|
B|-------------18----17-18-18-17-15----------------------------------------|
G|----------------------------------17-15-14---------------14-15-17-17b19~-|
D|-------------------------------------------17-15-14-15-17----------------|
A|-------------------------------------------------------------------------|
D|-------------------------------------------------------------------------|


Outro
Guitar 1
e|------------------------|
B|------------------------|
G|------------------------|
D|-8----7----5----3----4--|
A|-8----8----5----3----0--|
D|-8----7----5----3----0--|

Guitar 2 (solo)
e|--------------------------------------------------------------|
B|--------------------------------------------------------------|
G|-17b19~-----------------11-12-14-15~--14-12-17~--15-14-17b19~-|
D|--------------------------------------------------------------|
A|--------------------------------------------------------------|
D|--------------------------------------------------------------|

Guitar 1
e|------------------------|
B|------------------------|
G|------------------------|
D|-8----7----5----3----4--|
A|-8----8----5----3----0--|
D|-8----7----5----3----0--|

Guitar 2
e|---------------------------------------14-15-14-17-18-17-|
B|------------------------------15-16-15-------------------|
G|-17b19~--------------14-15-14----------------------------|
D|---------------------------------------------------------|
A|---------------------------------------------------------|
D|---------------------------------------------------------|

Guitar 1
e|------------------------|
B|------------------------|
G|------------------------|
D|-8----7----5----3----4--|
A|-8----8----5----3----0--|
D|-8----7----5----3----0--|

guitar 2
e|----------------------------------------------------|
B|----------------------------------------------------|
G|-17b19~--------------14-15-14-11-12-11-7-8-7-2-3-2--|
D|----------------------------------------------------|
A|----------------------------------------------------|
D|----------------------------------------------------|

Guitar 1
e|------------------------|
B|------------------------|
G|------------------------|
D|-8----7----5----3----4--|
A|-8----8----5----3----0--|
D|-8----7----5----3----0--|

Guitar 2
e|------------------------|
B|------------------------|
G|-3b5r3-----3----5----7~-|
D|------------------------|
A|------------------------|
D|------------------------|
comments
print report bad tab
8 comments total. Showing first comments.
0 reply
11Fernie11 wrote on September 8 2013, 08:53 pm

Very good!

0 reply
diazfjc90 wrote on September 9 2013, 05:02 pm

what does mean "r"?

0 reply
.Joker. wrote on September 10 2013, 05:34 pm

release the bend (3b5r3 would be bend to 5 and release back to 3)

I want to post or [tab]
guest
You may want to rate the tab now too:
select rating
Please do not post tabs as comments. Select "correction" instead!