Oops, an error
Loading. Please wait.

Acid Rain Bass Tab

version 2
version 2

Whole song

Interactive

1,162 views 3 this week
no commentswrite comment
1 2 3 4 5
excellent!
x 4
add to favorites
launch autoscroll
font size
0
reset
guitar tuner
Autoscroll
slow
fast
+/-
esc
set tempo
stop
Help us to improve Ultimate-Guitar.com Take our survey!
×
Contributor
Difficulty
Tuning
Teh D Bot 10,204
novice
D A D G B E
0:32
G|-------------------------------------------------|
D|-------------------------------------------------|
A|-5-----------3-----------1---------1-0-----1-----|
D|-------------------------------------------------|
   1 2 3 4 5 6 1 2 3 4 5 6 1 2 3 4 5 6 1 2 3 4 5 6

G|-------------------------------------------------|
D|-------------------------------------------------|
A|-------------------------0---------0-0---0-0-----|
D|-5-----------3-----------------------------------|
   1 2 3 4 5 6 1 2 3 4 5 6 1 2 3 4 5 6 1 2 3 4 5 6

G|-------------------------------------------------|
D|-------------------------------------------------|
A|-5-----------3-----------1---------1-0-----1-----|
D|-------------------------------------------------|
   1 2 3 4 5 6 1 2 3 4 5 6 1 2 3 4 5 6 1 2 3 4 5 6

G|-------------------------------------------------|
D|-------------------------------------------------|
A|-------------------------0-------0-0-0-----------|
D|-5-----------3-----------------------------------|
   1 2 3 4 5 6 1 2 3 4 5 6 1 2 3 4 5 6 1 2 3 4 5 6

1:02 Verse
G|-------------------------------------------------|
D|-------------------------------------------------|
A|-----------------------1-3---------3-3-----3-----|
D|-5---------5-5-------5---------------------------|
   1 2 3 4 5 6 1 2 3 4 5 6 1 2 3 4 5 6 1 2 3 4 5 6

G|-------------------------------------------5-----|
D|---------------------------------------------5---|
A|-----------------------1-3-----------3---------3-|
D|-5---------5-5-------5---------------------------|
   1 2 3 4 5 6 1 2 3 4 5 6 1 2 3 4 5 6 1 2 3 4 5 6

G|---------------------------------------------------|
D|---------------------5h7-5-------------------------|
A|-------------------3-------3---------3-3-----------|
D|-5---------------5---------------------------------|
   1 2 3 4 5 6 1 2 3 4 5   6 1 2 3 4 5 6 1 2 3 4 5 6

G|-------------------------------------------------|
D|-------------------------------------------------|
A|-----------------------1-3---------3-3-----------|
D|-5---------5-5-----5-5---------------------------|
   1 2 3 4 5 6 1 2 3 4 5 6 1 2 3 4 5 6 1 2 3 4 5 6

Pre Chorus 1:34
G|-------------------------------------------------------|
D|-------------------------------------------------------|
A|-0---------0-0---0-0---0-0-0-0-0-0-0/12-12-12-12-12-12-|
D|-------------------------------------------------------|
   1 2 3 4 5 6 1 2 3 4 5 6 1 2 3 4 5 6 1  2  3  4  5  6

Chorus 1:42
G|-------------------------------------------------|
D|-------------------------------------------------|
A|-5-----5-----3-----3---3-1---------1-0-----1-----|
D|-------------------------------------------------|
   1 2 3 4 5 6 1 2 3 4 5 6 1 2 3 4 5 6 1 2 3 4 5 6

G|-------------------------------------------------|
D|-------------------------------------------------|
A|-------------------------0-----0---0-0-----0-----|
D|-5-----------3-----------------------------------|
   1 2 3 4 5 6 1 2 3 4 5 6 1 2 3 4 5 6 1 2 3 4 5 6

Verse 1:57
G|-------------------------------------------------|
D|-----------------------5-------------------------|
A|---------------------3---3---------3-3-----3-----|
D|-5-----------------5-----------------------------|
   1 2 3 4 5 6 1 2 3 4 5 6 1 2 3 4 5 6 1 2 3 4 5 6

G|-------------------------------------------2-----|
D|---------------------------------------------3---|
A|-----------------------1-3---3-3---3-3---------3-|
D|-5-------------------5---------------------------|
   1 2 3 4 5 6 1 2 3 4 5 6 1 2 3 4 5 6 1 2 3 4 5 6

G|-------------------------------------------------|
D|-------------------------------------------------|
A|-----------------------1-3---3-3---3-3-----3-----|
D|-5-----------5-------5---------------------------|
   1 2 3 4 5 6 1 2 3 4 5 6 1 2 3 4 5 6 1 2 3 4 5 6

G|-------------------------------------------------|
D|-------------------------------------------------|
A|-----------------------1-3-----3---3-3-----3-1---|
D|-5---------5-5-------5-------------------------5-|
   1 2 3 4 5 6 1 2 3 4 5 6 1 2 3 4 5 6 1 2 3 4 5 6

Pre Chorus 2:28
G|-------------------------------------------14-14-------|
D|----------------------------------------14-------14----|
A|-0-----0---0-0---0-0---0-0-0-0-0-0-0-12-------------12-|
D|-------------------------------------------------------|
   1 2 3 4 5 6 1 2 3 4 5 6 1 2 3 4 5 6 1  2  3  4  5  6

Chorus 2:36
G|-------------------------------------------------|
D|-------------------------------------------------|
A|-5-----5---5-3-----3---3-1---------1-0-----1-----|
D|-------------------------------------------------|
   1 2 3 4 5 6 1 2 3 4 5 6 1 2 3 4 5 6 1 2 3 4 5 6

G|-------------------------------------------------|
D|---------------------------------------------7---|
A|-------------------------0-----0---0-0-----0-----|
D|-5---------5-3---------3-------------------------|
   1 2 3 4 5 6 1 2 3 4 5 6 1 2 3 4 5 6 1 2 3 4 5 6

G|-------------------------------------------------|
D|-------------------------------------------------|
A|-5-----5-5-5-3---------3-1---------1-0-----0-1---|
D|-------------------------------------------------|
   1 2 3 4 5 6 1 2 3 4 5 6 1 2 3 4 5 6 1 2 3 4 5 6

G|-------------------------------------------------|
D|-------------------------------------------------|
A|-------------------------0---------0-0-----------|
D|-5---------5-3-----------------------------------|
   1 2 3 4 5 6 1 2 3 4 5 6 1 2 3 4 5 6 1 2 3 4 5 6

Interlude
G|-------------------------------------------------|
D|-------------------------------------------------|
A|-1-----0-----------------------------------------|
D|-------------5-----3-----0-----------------------|
   1 2 3 4 5 6 1 2 3 4 5 6 1 2 3 4 5 6 1 2 3 4 5 6

Bridge 3:15
G|-------------------------------------------------|
D|-------------------------------------------------|
A|-------------0-----------1-----------2-----------|
D|-5-----------------------------------------------|
   1 2 3 4 5 6 1 2 3 4 5 6 1 2 3 4 5 6 1 2 3 4 5 6

G|-------------------------------------------------|
D|-------------------------------------------------|
A|-3-----------4-----------5-----------7-----------|
D|-------------------------------------------------|
   1 2 3 4 5 6 1 2 3 4 5 6 1 2 3 4 5 6 1 2 3 4 5 6

G|-------------------------------------------------|
D|-------10----------10----------------------------|
A|-8-----------7-----------8-----------9-----------|
D|-------------------------------------------------|
   1 2 3 4 5 6 1 2 3 4 5 6 1 2 3 4 5 6 1 2 3 4 5 6

G|-------------------------------------------------|
D|-5-----------7-----------8-----8-7-8-------------|
A|-------------------------------------5-5-5-5-5-5-|
D|-------------------------------------------------|
   1 2 3 4 5 6 1 2 3 4 5 6 1 2 3 4 5 6 1 2 3 4 5 6

Solo 3:46
G|-------------------------------------------------|
D|-------------------------------------------------|
A|-----------------------1-3-----------3-----3-3-5-|
D|-5---------5-5-------5---------------------------|
   1 2 3 4 5 6 1 2 3 4 5 6 1 2 3 4 5 6 1 2 3 4 5 6

G|-------------------------------------5-----------|
D|----------------------------------------5--------|
A|-----------------------1-3---3-3-3-3-------3-----|
D|-5---------5-5-------5---------------------------|
   1 2 3 4 5 6 1 2 3 4 5 6 1 2 3 4 5 6 1 2 3 4 5 6

G|-------------------------------------------------|
D|-------------------------------------------------|
A|-----------------------1-3---------3-3-----3-----|
D|-5-----------5-------5---------------------------|
   1 2 3 4 5 6 1 2 3 4 5 6 1 2 3 4 5 6 1 2 3 4 5 6

G|-------------------------------------------------|
D|-------------------------------------------------|
A|-----------------------1-3-----------------------|
D|-5-----------5-------5---------------------------|
   1 2 3 4 5 6 1 2 3 4 5 6 1 2 3 4 5 6 1 2 3 4 5 6

Pre Chorus 4:17
G|-------------------------------------------------------|
D|-------------------------------------------------------|
A|-0---0-0---0-0---0-0---0-0-0-0-0-0-0/12-12-12-12-12-12-|
D|-------------------------------------------------------|
   1 2 3 4 5 6 1 2 3 4 5 6 1 2 3 4 5 6 1  2  3  4  5  6

Chorus 4:25
G|-------------------------------------------------|
D|-------------------------------------------------|
A|-5-----5-----3-----3---3-1-----1---1-0---0-1---1-|
D|-------------------------------------------------|
   1 2 3 4 5 6 1 2 3 4 5 6 1 2 3 4 5 6 1 2 3 4 5 6

G|-------------------------------------------------|
D|-------------------------------------------7-----|
A|-------------------------0-----0---0-0-----------|
D|-5-----5---5-3---------3-------------------------|
   1 2 3 4 5 6 1 2 3 4 5 6 1 2 3 4 5 6 1 2 3 4 5 6

G|-------------------------------------------------|
D|-------7-----------7-----------------------------|
A|-5-----------3-----------1---------1-0-----1-----|
D|-------------------------------------------------|
   1 2 3 4 5 6 1 2 3 4 5 6 1 2 3 4 5 6 1 2 3 4 5 6

G|-------------------------------------------------|
D|-------------------------------------7-----------|
A|-------------------------0---0-0---0-------------|
D|-5-----5---5-3-----3---3-------------------------|
   1 2 3 4 5 6 1 2 3 4 5 6 1 2 3 4 5 6 1 2 3 4 5 6

Outro
G|-------------------------------------------------|
D|-------------------------------------------------|
A|-1-----0-----------------------------------------|
D|-------------5-----3-----0-----0-----0-----0-----|
   1 2 3 4 5 6 1 2 3 4 5 6 1 2 3 4 5 6 1 2 3 4 5 6

G|---------------------------------------------------|
D|o-------------------------------------------------o|
A|o-1-----0-----------------------------------------o|x3
D|--------------5-----3-----0------------------------|
    1 2 3 4 5 6 1 2 3 4 5 6 1 2 3 4 5 6 1 2 3 4 5 6
Tabbed by Dave Vucko
comments
print report bad tab
I want to post or [tab]
guest
You may want to rate the tab now too:
select rating
Please do not post tabs as comments. Select "correction" instead!