Oops, an error
Loading. Please wait.

Acid Rain Tab

version 2
version 2

Whole song

Interactive

1,802 views 1 this week
no commentswrite comment
1 2 3 4 5
excellent!
x 5
add to favorites
launch autoscroll
font size
0
reset
how to read this tab
guitar tuner
Tab Pro tools
  • play this tab
  • loop segment
  • change instrument
  • show fretboard
  • metronome
×
Best way to learn
"Acid Rain"
Autoscroll
slow
fast
+/-
esc
set tempo
stop
Contributor
Difficulty
intermediate
Band - Avenged Sevenfold

Album - Hail to the King 

Song - Acid Rain

Tuning - Standard

  Guitar 1 (Riff A) (Clean) Starts at 0:36 BPM:61 (Play Slowly)
E|----------1------------------1-----------------1------------------------|
B|-------3-----3------------3-----3-----------3-----3-----------3-------3-|
G|----2-----------2------2-----------2-----2-----------2-----2-------2----|
D|-0----------------------------------------------------------------------|
A|--------------------3-----------------1-----------------0--------1------|
E|------------------------------------------------------------------------|

  Guitar 1 (Riff A Continued)
E|------------------------------------------------------------------------|
B|----------3-----3-----3-----3-----3-----------3-----3-----------2-----2-|
G|-------3-----3-----------3-----3-----------2-----2-----------2-----2----|
D|----------------------------------------2-----------------2-------------|
A|----5--------------------------------0-----------------0----------------|
E|-3-----------------1----------------------------------------------------|


  Guitar 1 (Distortion W/ Ambient Delay)  (Guitar 2 Plays Riff A)
E|------------------------------------------------------------------------|
B|-8fbr-(8)fbr---6--8--x--8fbr-(8)p6---8----------------------------------|
G|---------------------------------------7~~~~~~----7fbr-(7)fbr----(7)\---|
D|------------------------------------------------------------------------|
A|------------------------------------------------------------------------|
E|------------------------------------------------------------------------|


   Guitar 1
E|------------------------------------------------------------------------|
B|-8fbr----(8)p6---8fbr---(8)p6/5----------(5)\-----5--6--5---------------|
G|------------------------------------------------------------------------|
D|------------------------------------------------------------------------|
A|------------------------------------------------------------------------|
E|------------------------------------------------------------------------|


  Guitar 1 Verse
E|------------------------------------------------------------------------|
B|--6fb-~~~~~~~~~~~~~~~~~~~~~~~~~~~~~~~~~~~~~~----------------------------|
G|------------------------------------------------------------------------|
D|------------------------------------------------------------------------|
A|------------------------------------------------------------------------|
E|------------------------------------------------------------------------|
 |
 | Guitar 2 Verse (Riff B)
E|-------------------------------------------------------------------------|
B|----------3-----3-------------3-----3------------1-----1-----------1---1-|
G|-------3-----3-------------3-----3------------0-----0-----------0----0---|
D|----0-------------------0------------------2-----------------2-----------|
A|----------------------------------------3-----------------3--------------|
E|-3-------------------3---------------------------------------------------|


(((RIFF B))) x3



   PRE-CHORUS  Guitar 1&2 (Riff C) (Slight Distortion)
E|------------------------------------------------------------------------|
B|------------------------------------------------------------------------|
G|-----2--3-2--------2--3-2h3p2--------2-3-2--------2-3-2-----------------|
D|---2--------2----2------------2----2-------2----2-------2---------------|
A|-0-------------0-----------------0------------0-------------------------|
E|------------------------------------------------------------------------|

(((CHORUS -- GUITAR 1&2 W/ RIFF A)))


(((VERSE -- GUITAR 2 W/ RIFF B x4)))


(((PRE-CHORUS -- GUITAR 1&2 -- RIFF C)))


(((CHORUS -- GUITAR 1&2 W/ RIFF A x2)))


   Interlude Guitar 1&2
E|------------------------------------------------------------------------|
B|-------------------------------------------3----------------------------|
G|-------3---------3---------3----------3----2----------------------------|
D|----3---------3---------3----------3-------4----------------------------|
A|-1---------0------------------------------------------------------------|
E|---------------------3----------1---------------------------------------|



Bridge (All Piano) 



  Solo Guitar 1    (Guitar 2 Plays Riff B x4)
E|------------------------------------------------------------------------|
B|------------------------------------------------------------------------|
G|--5fb----(5)~~~~~~--3---5-----------------3fbr-(3)fb-----5fbr-----------|
D|--------------------------5~~~~~~~--(5)\--------------------------------|
A|------------------------------------------------------------------------|
E|------------------------------------------------------------------------|



  Solo Guitar 1
E|------3-----------------------------------------------------------------|
B|----3---6fbr-(6)p3-----6-5~~~~~~~~-(5)\--5hbr-(5)hbr--------------------|
G|--5----------------6p3--------------------------------------------------|
D|------------------------------------------------------------------------|
A|------------------------------------------------------------------------|
E|------------------------------------------------------------------------|



  Solo Guitar 1
E|------------------------------------------------------------------------|
B|-6fbr-(6)fbr--(6)p3-----6fbr----6fbr-(6)p3------------------------------|
G|--------------------6p3--------------------6p3-6\5~~~~~~--5fbr--(5)fb---|
D|------------------------------------------------------------------------|
A|------------------------------------------------------------------------|
E|------------------------------------------------------------------------|



   Solo Guitar 1
E|------------------------------------------------------------------------|
B|----------8-10hb--(10)-8-10-----------------6-(6)\1/3/5~~~~-6~~~~-8~~~~-|
G|-(5)-5/7--------------------7~~--~(7)\-3/9------------------------------|
D|------------------------------------------------------------------------|
A|------------------------------------------------------------------------|
E|------------------------------------------------------------------------|




E|------------------------------------------------------------------------|
B|-8/10~~~~-11~~~~-8~~~~-10~~~~-11~~~~-(11)\------------------------------|
G|------------------------------------------------------------------------|
D|------------------------------------------------------------------------|
A|---------------------------------------------10/13~~~~------------------|
E|------------------------------------------------------------------------|



  Solo Guitar 1       (---------------------FAST---------------------)
E|---------------------------------------------------------------10-12----|
B|-------------------------------------------10---------10-11-14----------|
G|-------------91012---------------------9-12--10-12-13-------------------|
D|-------11-12--------------7-8-11-7-8-11---------------------------------|
A|-12-13--------------7/8-10----------------------------------------------|
E|------------------------------------------------------------------------|
                         (((END SOLO)))


   Chorus Guitar 1 (Guitar 2 Plays Riff A x2)
E|-12hb~~~~~~~~--10-----------------10/13----12-10------------------------|
B|-------------------10~~~~-(10)\-------------------10~~~~----~(10)\------|
G|------------------------------------------------------------------------|
D|------------------------------------------------------------------------|
A|------------------------------------------------------------------------|
E|------------------------------------------------------------------------|


  Chorus Continued Guitar 1
E|------------------------------------------------------------------------|
B|-6/10-----10/13----11p10--11~~~~-----10-11-10---------------------------|
G|----------------------------------12----------10~~~~----10-11-----------|
D|-----------------------------------------------------12-------9--(9)\3/7|
A|------------------------------------------------------------------------|
E|------------------------------------------------------------------------|


   Chorus Continued Guitar 1
         (----------FAST------------)
E|----------------------------9h10h12---13~~~~~~~~------------------------|
B|----------8-9-11-10-9-8-9-10--------------------------------------------|
G|-6--7-9-10-----------9--------------------------------------------------|
D|------------------------------------------------------------------------|
A|------------------------------------------------------------------------|
E|------------------------------------------------------------------------|


  Chorus Continued Guitar 1 
E|-15fb-------15fb-------15fbr------15~~~~~~~~~---------------------------|
B|------------------------------------------------------------------------|
G|------------------------------------------------------------------------|
D|------------------------------------------------------------------------|
A|------------------------------------------------------------------------|
E|------------------------------------------------------------------------|


  End of Chorus Guitar 1
               (------------------------FAST--------------------------)
E|-17--18--15--17-18-15-17----15------------------------------------------|
B|-------------------------18----17-18-15-17------------------------------|
G|-------------------------------------------17-17-17-15-14---------------|
D|----------------------------------------------------------17-14-15-14---|
A|------------------------------------------------------------------------|
E|------------------------------------------------------------------------|



   Outro Guitar 1 
E|------------------------------------------------------------------------|
B|------------------------------------------------------------------------|
G|-17fb~~~~~--17fb~~~~--14hb-----14~~~~--14\7/11--12-14-14hb-14p12--15p14-|
D|------------------------------------------------------------------------|
A|------------------------------------------------------------------------|
E|------------------------------------------------------------------------|
 |
 | Guitar 2 (Riff D)
E|---------------------------------------2-----------------2--------------|
B|-------------------------------------3----3------------3---3------------|
G|-----3-----3---------3--------3----2---------2-----2-----------2--------|
D|---3-----3--------3-------3------0---------------0----------------------|
A|-1-----0----------------------------------------------------------------|
E|---------------3-------1------------------------------------------------|


  Outro Guitar 1 (Guitar 2 Plays Riff D x2)
E|----------------------------------------------------14-15-14-17-18-17---|
B|-------------------------------------------15-16-15---------------------|
G|--17fbr(17)fbr~~~~~~~~~--(17)\12/14--15-14------------------------------|
D|------------------------------------------------------------------------|
A|------------------------------------------------------------------------|
E|------------------------------------------------------------------------|



   Outro Guitar 1 
E|------------------------------------------------------------------------|
B|------------------------------------------------------------------------|
G|--17fb---17fb~~~~~~~~-14-15-14\11-12-11\7-8-7\2-3-2---------------------|
D|------------------------------------------------------------------------|
A|------------------------------------------------------------------------|
E|------------------------------------------------------------------------|


   Outro Guitar 1 
E|------------------------------------------------------------------------|
B|------------------------------------------------------------------------|
G|--3fb----------3~~~~~~~~--3-----3/5-----(5)\2---------------------------|
D|------------------------------------------------------------------------|
A|------------------------------------------------------------------------|
E|------------------------------------------------------------------------|
 |
 | Outro Guitar 2
E|------------------------------------------------------------------------|
B|------------------------------------------------------------------------|
G|--------3-----------3-----------3---------3-----3-----------------------|
D|-----3-----------3------------3--------3--------2-----------------------|
A|--1-----------0---------------------------------4-----------------------|
E|---------------------------3--------1-----------------------------------|




And That's Acid Rain Everybody! Hope You Enjoy! 
Comment&Rate?
comments
print report bad tab
I want to post or [tab]
guest
You may want to rate the tab now too:
select rating
Please do not post tabs as comments. Select "correction" instead!