Oops, an error
Loading. Please wait.

Afterlife Tab

116,651 views 66 this week
13 commentsread comments
1 2 3 4 5
x 37
add to favorites
launch autoscroll
font size
0
reset
how to read this tab
guitar tuner
Autoscroll
slow
fast
+/-
esc
set tempo
stop
Help us to improve Ultimate-Guitar.com Take our survey!
×
Author
Artist: Avenged Sevenfold Solo
Song: Afterlife

   P P P   P  (the rest is h/o's p/o's and slides)
e|--------------------------|-----------|-------|--------------------|
B|---------5h6h8p6p5--5h6h8/|-15~~------|-17~~--|-20~~---------------|
G|-----5h7----------h7------|-----------|-------|--------------------|
D|--------------------------|-----------|-------|--------------------|
A|-5-8----------------------|-----------|-------|--------------------|
D|--------------------------|-----------|-------|--------------------|
Pm . .                      |  1st time,| 2nd,  |3rd

  P  (the rest is hammerons pulloffs and slides)
e|7/13\-8p6h8p6p5-----------h5h8p5h6h8-------------------------------|
B|----------------8p5h6h8--------------5p3h5p3/2----------------h2h3-|
G|-----------------------------------------------h4/6\4\2---h2h3-----|
D|--------------------------------------------------------3----------|
A|-------------------------------------------------------------------|
D|-------------------------------------------------------------------|

(This is the harmony part. I didn't tab the other part. But other people probably has, 
them out instead)
   P     P            P P P P P          P P P
e|-------------------------------------------------------------------|
B|-4b(5)/6-/12b(13)---6-5-6-5-6/14b(15)\-6-5-6-/-17b(18)~~~----------|
G|-------------------------------------------------------------------|
D|-------------------------------------------------------------------|
A|-------------------------------------------------------------------|
D|-------------------------------------------------------------------|

   P  P        P  P
e|-------------------------------------------------------------------|
B|-15-17^b(18)-17-18b(20)~~------------------------------------------|
G|-------------------------------------------------------------------|
D|-------------------------------------------------------------------|
A|-------------------------------------------------------------------|
D|-------------------------------------------------------------------|

[Sweeping part]
   P  P  P  P  P  P  P  P  P  P  P  P  P  P  SP''''''''''''''P  P  P  P
e|-17-16-15-13-15-16-17-16-15-13-15-16-17-15-13--------------13-15-16-17~~----------------|
B|-------------------------------15----------15--------------------------|
G|---------------------------------14------14---------------------------|
D|-----------------------------------15--15------------------------------|
A|-------------------------------------17--------------------------------|
D|-----------------------------------------------------------------------|

   P  P  P   P  P  P  P  P SP''P SP'''''''''''''' P  P  P
e|-13-12-10--10-12-13-12-10----13-10--------------10-12-13--------------------|
B|-------11----------11------11----------11--------------------------|
G|---------------------10------10------10----------------------------|
D|-------------------------------12--12------------------------------|
A|---------------------------------13--------------------------------|
D|-------------------------------------------------------------------|

   P  P  P  P  P  P  P  P  P  P  P  SP'''''''   SP''''''P  P  P  P
e|-18-17-16-15-16-17-18-17-16-15/13-10------------------15-16-17-18~~-------------|
B|--------------------------11--------------15------------------------------------|
G|----------------------------10----------15--------------------------------------|
D|------------------------------12------15----------------------------------------|
A|--------------------------------13//17------------------------------------------|
D|--------------------------------------------------------------------------------|

   P P P P P P P P P SP''''''''''''''P P P P
e|-17-16-15-13-15-16-17-16-15-13--------------13-15-16-17//22--------------------|
B|---------------------15----------15--------------------------------------------|
G|-----------------------14------14----------------------------------------------|
D|-------------------------15--15------------------------------------------------|
A|---------------------------17--------------------------------------------------|
D|-------------------------------------------------------------------------------|

   P SP''''''''''''''
e|-13-10--------------------------------------------------------------|
B|-----11----------11-------------------------------------------------|
G|-------10------10---------------------------------------------------|
D|---------12--12-----------------------------------------------------|
A|-----------13-------------------------------------------------------|
D|--------------------------------------------------------------------|

(Speedpicking part: Notice that you aren't playing the same thing all over.
On the first part you play 101310 two times in a row once. It's marked.)

   P P P P P P P P P P P P P P P P P P P P P P P P P P P
e|-10-13-10--10-15-10--10-13-10--10-15-10--10-13-10--10-13-10--10-15-10//----------|
B|-------13------13------13------13------13------13--------------------------------|
G|--------------------------------|______________|---------------------------------|
D|---------------------------------------------------------------------------------|
A|---------------------------------------------------------------------------------|
D|---------------------------------------------------------------------------------|

   P P P P P P P P  P P P P P P P P  P P P P
e|-13-15-13--13-15-13-17-13-15-13--13-15-13-17-13-15-13--------------------------|
B|-------17---------------17---------------17------------------------------------|
G|-------------------------------------------------------------------------------|
D|-------------------------------------------------------------------------------|
A|-------------------------------------------------------------------------------|
D|-------------------------------------------------------------------------------|

[Out from speedpicking part]
    P P P P P P P P P P P P P P P P P P P P P P    P        P
e|--18-17-15------17-15-13----------------------------|------------------|
B|--------18-17-15------17-15-13----------------------|13b(15)--20b(22)~~|
G|--------------------------14-13-12------------------|------------------|
D|--------------------------------14-13-12------------|------------------|
A|--------------------------------------14-13-12------|------------------|
D|------------------------------------------------12\7|------------------|
                                                   (This is if you don't have whammy.)

If you want to see my cover of this solo: check me out on youtube, here's a link.
http://www.youtube.com/watch?v=MBPpVEyg_Bg


************************************

| h  Hammer-on
| p  Pull-off
| /  Slide up
| ~  Vibrato
| P  Pop
| .  Staccato
| \  Slide down

************************************
Suggest correction
comments
print report bad tab
13 comments total. Showing first comments.
+2 reply
th_brck_rcks 456 May 26, 2010 10:34 PM

EXCELLENT!!!!

+1 reply
T.O. 47 May 28, 2010 05:22 PM

thank you!

+6 reply
Mr. Harpoon 10 Aug 03, 2010 09:17 PM

This is the best tab for this solo on this site. Keep up the good work!

guest
You may want to rate the tab now too:
select rating
Wanna post a correction for this tab? Suggest correction