Oops, an error
Loading. Please wait.

Afterlife Bass Tab

version 3
7,368 views 3 this week
1 commentread comment
1 2 3 4 5
accurate
x 4
add to favorites
launch autoscroll
font size
0
reset
guitar tuner
Autoscroll
slow
fast
+/-
esc
set tempo
stop
Help us to improve Ultimate-Guitar.com Take our survey!
×
Author
Artist: A7X
Song: Afterlife
Tuning: DADG

Plzzz leave feedback

Intro Solo Backing
|---------|   
|---------|
|---1-----| x2
|-0---5-1-|

Guitar Plays Pre-verse

Just before verse play

|---------|
|---------|
|---------|
|-3-05-06-|

Verse
|--------------------------------------------------------|
|--------------------------------------------------------|
|--5h8p5-5h8p5------------5h8p5-5h8p5--------------------| x3
|-------------6p0-0--0-0-------------6p0-0--0-0--3--5--6-|

|------------------------------------------------------------------|
|------------------------------------------------------------------|
|--5h8p5-5h8p5------------5h8p5-5h8p5------------------------------|
|-------------6p0-0--0-0-------------6p0--0--0-0--3--5--6-6--5--3--|
 
Prechorus                               Only play this on 3rd time
|-------------------------------------|----------------|
|-------------------------------------|----------------|  x3
|----5-3----8---7---5/8-3-3-3-3-3-3-3-|----------------|
|-00-----00---0---0-------------------|-8-8-8-10-10-13-|
                 
|------------------------------------------------------|  
|------------------------------------------------2-2-2-|
|----------------------------1--1-1-1-1-1--3-3-3-------| x2
|-0--0-0-0-0-0--3-3-3--3-3-3---------------------------|

Chorus
|---------|  
|---------|
|---3-5-1-| x2
|-3-------|

Verse [As above]

Chorus x4

Bridge [All single notes here = triplets]
|-----------------------------------------|
|-----------------------------------------| 
|---------1-1-1-1---------1-1-1-1-0-0-0-0-| x6
|-0-0-0-0---------5-5-5-5-----------------|

Solo Backing [Same as bridge]

Post Solo
|-----------------------------------------|
|-----------------------------------------|
|-5-5-5-5-5-----------3-3-3-3-3-----------| x2
|-----------0---0-0-0-----------2---2-2-2-|

|-------------------------------------------------------|
|-------------------------------------------------------| x2
|-5-5-5-5-5------------------3-3-3-3-3------------------|
|-----------0-0-0-0-0--0-0-0-----------2-2-2-2-2--2-2-2-|

Outro Chorus
|-------------------0-2-3---------|
|-------3-3-3-5-5-5-------1-0-1-3-|
|-3-3-3---------------------------|
|---------------------------------|

|------------------------------------------|
|-------0-5-7------------------------------|
|-3-3-3-------7-7-7-9-10-5-5-5-7-8-1-0-1-3-| x2
|------------------------------------------|

|------------------------------------------|
|-------0-5-7------------------------------|
|-3-3-3-------7-0-9-5-0-7-1-1-1-1-1-1-1--5-| 
|------------------------------------------|
Suggest correction
What's this?
You can suggest a correction to this tab. Community and Mods will review your correction and vote to approve or reject it.
comments
print report bad tab
1 comment total.
0 reply
911_bassist 12 wrote on October 29 2008, 03:24 pm

good job tabbing the song

guest
You may want to rate the tab now too:
select rating
Please do not post tabs as comments. Select "correction" instead!