Oops, an error
Loading. Please wait.

Afterlife Bass Tab

version 5
5,004 views 1 this week
no commentswrite comment
1 2 3 4 5
1 last vote to show rating
add to favorites
launch autoscroll
font size
0
reset
guitar tuner
Autoscroll
slow
fast
+/-
esc
set tempo
stop
Help us to improve Ultimate-Guitar.com Take our survey!
×
Author
Difficulty
Tuning
intermediate
D A D G B E
-------------------------------------------------------------------------------
			     Afterlife-Avenged Sevenfold 
-------------------------------------------------------------------------------

Tabbed By : Misfit 999
e-mail: 

Tuning:Drop D
After violins
G|---------------------------------------------------------------------------|
D|---------------------------------------------------------------------------|
A|---1---------1-------------------------------------------------------------|
E|-0---5--1--0---5--1--------------------------------------------------------|
Verse.
G|---------------------------------------------------------------------------|
D|---------------------------------------------------------------------------|
A|-------[5h8-5h8------5h8-5h8---------[]x4----------------------------------|
E|-30506-----6---000------6---000-356]------653------------------------------|

G|---------------------------------------------------------------------------|
D|---------------------------------------------------------------------------|
A|-----------------3333337-8-10----------------33333333-10-12-13-------------|
E|-008070000-10-087------------008070000-10-087------------------------------|

G|---------------------------------------------------------------------------|
D|---------------------------------------------------------------------------|
A|-----------------3333333311111111333444444---------------------------------|
E|-008070000-10-087----------------------------------------------------------|
Pre-Chorus
G|---------------------------------------------------------------------------|
D|---------------------------------------------------------------------------|
A|------------1111113333/7----------------1111113333/7-----------------------|
E|-00000333333------------008070000-10-087-----------------------------------|
Chorus 1
G|---------------------------------------------------------------------------|
D|---------------------------------------------------------------------------|
A|---------333333335555555511111111------------------------------------------|
E|-33333333------------------------x2----------------------------------------|
Play Verse and pre chorus again then chorus 2:

Chorus 2
G|---------------------------------------------------------------------------|
D|---------------------------------------------------------------------------|
A|---------333333335555555511111111--------333333335555555511111111----------|
E|-33333333------------------------33333333------------------------33333333--|

G|-----------------------------------------------------------------------|
D|-----------------------------------------------------------------22222-|
A|-------------------------1111111111------------------------11111-------|
E|-333333332222222200000000----------333333332222222200000000------------|
Interlude
G|---------------------------------------------------------------------------|
D|---------------------------------------------------------------------------|
A|---------------------------------------------------------------------------|
E|0000000000888888888888555555555555111111111111000000000000888888888888-----|
pm======================================================================
G|---------------------------------------------------------------------------|
D|---------------------------------------------------------------------------|
A|---------------------------------------------------------------------------|
E|-5555555555558888887777777-------------------------------------------------|
============================
G|---------------------------------------------------------------------------|
D|---------------------------------------------------------------------------|
A|---------------------------------------------------------------------------|
E|-000000888888555555888777-x4-----------------------------------------------|

G|---------------------------------------------------------------------------|
D|---------------------------------------------------------------------------|
A|-1-------------------------------------------------------------------------|
E|0-5-1-x2--{power-drum-bit}-00000000111111115555555588887777----------------|

G|---------------------------------------------------------------------------|
D|---------------------------------------------------------------------------|
A|---------111111111-----------------00000----33333--------------------------|
E|-00000000---------55555555-8\8\7\7\------0000-----2222-x2------------------|
Pm                                   ====  =======  ===  

G|---------------------------------------------------------------------------|
D|---------------------------------------------------------------------------|
A|-55555--------33333--------------------------------------------------------|
E|------00000000-----22222222-x2---------------------------------------------|
pm ==== ============ ========
Chorus 3
G|---------------------------------------------------------------------------|
D|---------------------------------------------------------------------------|
A|---------333333335555555511111111--------333333335555555511111111----------|
E|-33333333------------------------33333333------------------------33333333--|

G|-----------------------------------------------------------------------|
D|-----------------------------------------------------------------22222-|
A|-------------------------1111111111------------------------11111-------|
E|-333333332222222200000000----------333333332222222200000000------------|
Finish
G|---------------------------------------------------------------------------|
D|---------------------------------------------------------------------------|
A|---------------------------------------------------------------------------|
E|-0-------------------------------------------------------------------------|


| /  slide up
| \  slide down
| h  hammer-on
| p  pull-off
| ~  vibrato
| +  harmonic
| x  Mute note
===============================================================================
Suggest correction
Give kudos to tab author, rate the tab!
1 2 3 4 5
comments
print report bad tab
guest
You may want to rate the tab now too:
select rating
Wanna post a correction for this tab? Suggest correction