Oops, an error
Loading. Please wait.

Afterlife Bass Tab

version 6
24,794 views 3 this week
4 commentsread comments
1 2 3 4 5
excellent!
x 14
add to favorites
launch autoscroll
font size
0
reset
guitar tuner
Autoscroll
slow
fast
+/-
esc
set tempo
stop
Help us to improve Ultimate-Guitar.com Take our survey!
×
Author
Difficulty
Tuning
advanced
D A D G B E
This is the "Afterlife" tab for bass.
You can hear the bass clearly LIVE from LONG BEACH CALIFORNIA !

Using finger to play this .

Intro:

G------------------------------------------------------------------------------|
D------------------------------------------------------------------------------|
A------------------------------------------------------------------------------|
D-0-00-00-000000~--8-08-08-888888~--5-05-05-5555555~--1-01-01-111111~----------|(2x)

Pre Verse:

G------------------------------------------------------------------------------|
D------------------------------------------------------------------------------|
A------------------------------------------------------------------------------|
D---3-05-06--------------------------------------------------------------------|

Verse 1:

G-------------------------------------------------------------------------------|
D-------------------------------------------------------------------------------|
A---585-585----------585-585----------------------------------------------------|
D------6---6--0--0--0---6---6--0--0--0--3~--5~--6~------------------------------|(3X)


Verse 1A:

G-------------------------------------------------------------------------------|
D-------------------------------------------------------------------------------|
A---585-585----------585-585----------------------------------------------------|
D------6---6--0--0--0---6---6--0--0--0--3~--5~--6~-6~--5~--3~-------------------|


Verse 1B:(bass solo)

G------------------------------------------------------------------------------|
D------------------------------------------------------------------------------|
A------------------------------------------------------------------------------|
D--00-8-0-7-00-10-0-8-0-7-0-875-10-10-10101010--10-1010-1010-------------------|


G------------------------------------------------------------------------------|
D------------------------------------------------------------------------------|
A------------------------------------------------------------------------------|
D---00-8-0-7-00-10-0-8-0-7-0-875--10-10-10101010--14-1414-1414-----------------|

G------------------------------------------------------------------------------|
D------------------------------------------------------------------------------|
A------------------------------------------------------------------------------|
D--0080700-10-0-8-7-875-10-10-10101010--10-1010-1010-8-8-8--8--88--88888-------|

G------------------------------------------------------------------------------|
D------------------------------------------------------------------------------|
A------------------------------------------------------------------------------|
D---10-10--11-11/11-11-11-11---------------------------------------------------|


Pre chours:

G------------------------------------------------------------------------------|
D------------------------------------------------------------------------------|
A------------------------------------------------------------------------------|
D---0-000000-333-333--8-888888---101010----141414------------------------------|(2x)

Chorus1:

G--------------------------------------------------------------------------------|
D--------------------------------------------------------------------------------|
A------------33333333---------11111111---------33333333-5555555-0-1111111-0------|
D---33333333---------00000000----------33333333----------------------------------|

G------------------------------------------------------------------------------|
D------------------------------------------------------------------------------|
A---77777777-------------------------------------------------------------------|
D------------------------------------------------------------------------------|


Verse 2:

G-------------------------------------------------------------------------------|
D-------------------------------------------------------------------------------|
A---585-585----------585-585----------------------------------------------------|
D------6---6--0--0--0---6---6--0--0--0--3~--5~--6~------------------------------|(3X)


Verse 2A:

G-------------------------------------------------------------------------------|
D-------------------------------------------------------------------------------|
A---585-585----------585-585----------------------------------------------------|
D------6---6--0--0--0---6---6--0--0--0--3~--5~--6~-6~--5~--3~-------------------|


Verse 2B:(bass solo)

G------------------------------------------------------------------------------|
D------------------------------------------------------------------------------|
A------------------------------------------------------------------------------|
D--00-8-0-7-00-10-0-8-0-7-0-875-10-10-10101010--10-1010-1010-------------------|


G------------------------------------------------------------------------------|
D------------------------------------------------------------------------------|
A------------------------------------------------------------------------------|
D---00-8-0-7-00-10-0-8-0-7-0-875--10-10-10101010--14-1414-1414-----------------|

G------------------------------------------------------------------------------|
D------------------------------------------------------------------------------|
A------------------------------------------------------------------------------|
D---008070100807-0-875--10-10-10101010--10-1010-1010-8-8-8--8--88--88888------|

G------------------------------------------------------------------------------|
D------------------------------------------------------------------------------|
A------------------------------------------------------------------------------|
D---10-10--11-11/11-11-11-11---------------------------------------------------|

Chorus2:

G--------------------------------------------------------------------------------|
D--------------------------------------------------------------------------------|
A------------33333333---------11111111---------33333333-5555555-0-1111111-0--1-3-|
D---33333333---------00000000----------33333333----------------------------------|

G------------------------------------------------------------------------------|
D------------------------------------------------------------------------------|
A----88888887-333333-1-3-55555-878--11111111-----------------------------------|
D------------------------------------------------------------------------------|

G------------------------------------------------------------------------------|
D---------------------------777------------------------------------------------|
A----88888887-333333-1-3-555---5-0-1111111-0--77777777-------------------------|
D------------------------------------------------------------------------------|

Bridge1 A:

G--------------------------------------------------------------------------------|
D--------------------------------------------------------------------------------|
A--------------------------------------------------------------------------------|
D---000-000-000-000-888-888-888-888-555-555-555-555-111-111-111-111--------------|

G---------------------------------------------------------------------------------|
D---------------------------------------------------------------------------------|
A---------------------------------------------------------------------------------|
D---000-000-000-000-888-888-888-888-555-555-555-555-888-888-777-777---------------|

Bridge1 B:

G--------------------------------------------------------------------------------|
D--------------------------------------------------------------------------------|
A--------------------------------------------------------------------------------|
D---00-00-23-88-8887-555535-8~8p10p8-7~7~----------------------------------------|

G--------------------------------------------------------------------------------|
D--------------------------------------------------------------------------------|
A--------------------------------------------------------------------------------|
D---00-00-23-88-8887-555555-88887777---------------------------------------------|

G----------------------------------9-10------------------------------------------|
D-------------------35-55555-888878----------------------------------------------|
A-----------1-1-1-35-------------------------------------------------------------|
D---00-00-23---------------------------------------------------------------------|

G--------------------------------------------------------------------------------|
D--------------------------------------------------------------------------------|
A--------------------------------------------------------------------------------|
D---00-00-23-88-8887-555555-888887777--------------------------------------------|


Solo A:

G---------------------------------------------------------------------------------|
D---------------------------------------------------------------------------------|
A---------------------------------------------------------------------------------|
D---0-00-00-000000~--8-88-88-888888~--5-55-55-555555~--8-8888-7-7777--------------|

Intro/Solo B:

G------------------------------------------------------------------------------|
D------------------------------------------------------------------------------|
A------------------------------------------------------------------------------|
D-0-00-00-000000~--8-08-08-888888~--5-05-05-5555555~--8-888-7-777777-----------|

Solo C:

G---------------------------------------------------------------------------------|
D---------------------------------------------------------------------------------|
A---------------------------------------------------------------------------------|
D---000000000000-888888888888-555555555555-888888777777---------------------------|(2x)

Bridge2 A:

G-----------------------------------------------------------------------------|
D-----------------------------------------------------------------------------|
A---55555-----------33333-----------------------------------------------------|
D --------0~--0-0-0-------2~--2-2-2-------------------------------------------|(2x)

Bridge2 B:

G------------------------------------------------------------------------------|
D------------------------------------------------------------------------------|
A---55555-----------33333------------------------------------------------------|
D---------00000-000-------22222-222--------------------------------------------|(2x)

Bridge3:

G----------------------------------------------------------------------------|
D----------------------------------------------------------------------------|
A----------------------------------------------------------------------------|
D---0~-2~-3~-5~-2~~~---------------------------------------------------------|

Chorus3: (Outro)

G-------------------------------------------------------------------------------|
D-------------------------------------------------------------------------------|
A-----88888887-333333-135-55555-787-1111111-3-----------------------------------|
D-------------------------------------------------------------------------------|

G------------------------------------------------------------------------------|
D----------5-7----7-5--------------------8-8-7---------------------------------|
A----888888---3333-3-8-555555-7-8---11111--------------------------------------|
D------------------------------------------------------------------------------|

G------------------------------------------------------------------------------|
D---------------------------------8888787-5-----------------------777----------|
A-----8888888-10-77777778-55555555---------88888887-333333-1-3-555---5-0-------|
D------------------------------------------------------------------------------|

G------------------------------------------------------------------------------|
D------------------------------------------------------------------------------|
A-----1111111-0-7777777--------------------------------------------------------|
D----------------------0~~~~~~~~~~~~~~~~~--------------------------------------|


Well , i think is very accurate . Hope u can follow this tab =)

Suggest correction
What's this?
You can suggest a correction to this tab. Community and Mods will review your correction and vote to approve or reject it.
comments
print report bad tab
4 comments total. Showing first comments.
+2 reply
Figoss 37 wrote on April 9 2009, 02:35 am

Definatly the best and most accurate tab on here, that long beach show rocks

0 reply
broississy 268 wrote on February 21 2010, 10:29 pm

Hey, thanks a lot for this tab! My band and I made played a cover of Afterlife for a battle of bands a few weeks ago and I utilized your tablature. We got the third place out of 11 competing bands :D Thanks really!

0 reply
Pandasrule4ever 56 wrote on April 19 2012, 08:35 pm

what the hell dude? you COMPLETELY copied this from version 4? You even left the mispelling of "Chorus" ? C'mon dude there's already a lot of plagerism on this site already...

guest
You may want to rate the tab now too:
select rating
Please do not post tabs as comments. Select "correction" instead!