Oops, an error
Loading. Please wait.

An Epic Of Time Wasted bass

version 3
version 3

Whole song

Interactive

197 views 1 this week
no commentswrite comment
1 2 3 4 5
1 last vote to show rating
add to favorites
×
Save as Personal and add changes to this tab that will be seen only by you. Learn more ›
×
You can save this tab as Personal to edit and correct it or add notes. All changes will be seen only by you. Learn more »
launch autoscroll
font size
0
reset
guitar tuner
edit
Autoscroll
slow
fast
+/-
esc
set tempo
stop
G|-------------------------------------------------------------------|
D|o-----------------------------------------------------------------o|
A|o---------5-------------------------------------------------------o|x4
D|--0-----------6---5---0---3---5---6---5---3---0---3---5---1-1------|
    1 e + a 2 e + a 3 e + a 4 e + a 1 e + a 2 e + a 3 e + a 4 e + a

0:17
G|-------------------------------------------------------------------|  |-----|
D|o-----------------------------------------------------------------o|  |-----|
A|o---------3h5-----------------------------3h5---------------------o|x4|-----|
D|--0-----------0-3---0-2-3-5---1---0-----------0-3---0-2-3-5---7----|  |-0---|
    1 e + a 2 e + a 3 e + a 4 e + a 1 e + a 2 e + a 3 e + a 4 e + a

0:36
G|-------------------------------------------------------------------|
D|o-----------------------------------------------------------------o|
A|o---------3h5-----------------------------3h5---------------------o|x4
D|--0-0-0-------0-3---0-2-3-5---1---0-0-0-------0-3---0-2-3-5---7----|
    1 e + a 2 e + a 3 e + a 4 e + a 1 e + a 2 e + a 3 e + a 4 e + a

0:54
G|-----------------------------------------------------------------|
D|-----------------------------------------------------------------|
A|-----------------------------------------------------------------|
D|-0---0---0-1-0---0---0---0-1-0---0---0---0-1-0---0---------------|
   1 e + a 2 e + a 3 e + a 4 e + a 1 e + a 2 e + a 3 e + a 4 e + a

0:59
G|-----------------------------------------------------------------|
D|--------------------------------------------------------(Triplet)|
A|-----------------0-0---0-0-0---0-2-2-2-2-5-5-5-5-2---2---5--4--0-|
D|-5-5---5-5-5---5-------------------------------------------------|
   1 e + a 2 e + a 3 e + a 4 e + a 1 e + a 2 e + a 3 e + a 4 e + a

G|-----------------------------------------------------------------|
D|-----------------------------------------------------------------|
A|-----------------0-0---0-0-0---0---------------------------------|
D|-5-5---5-5-5---5-----------------4-4-4-4-4-4-4-4-4---------------|
   1 e + a 2 e + a 3 e + a 4 e + a 1 e + a 2 e + a 3 e + a 4 e + a

1:08
G|-----------------------------------------------------------------|
D|-----------------------------------------------------------------|
A|-----------------0-0-0-0-0-0-0-0-5-5-5-5-4-4-4-4-2-2-2-2-0-0-0-0-|
D|-5-5-5-5-5-5-5-5-------------------------------------------------|
   1 e + a 2 e + a 3 e + a 4 e + a 1 e + a 2 e + a 3 e + a 4 e + a

G|---------------------------------|
D|---------------------------------|
A|---------------------------------|
D|-5-5-5-5-5-5-5-5-4---------------|
   1 e + a 2 e + a 3 e + a 4 e + a 

1:14
G|-----------------------------------------------------------------|
D|-----------------------------------------------------------------|
A|-2-2-2-2-2-------2-2-2-2-2-0-------------------------------------|
D|---------------------------------5-5-5-5-5-------5-5-5-5-5-4-----|
   1 e + a 2 e + a 3 e + a 4 e + a 1 e + a 2 e + a 3 e + a 4 e + a

G|-----------------------------------------------------------------|
D|-----------------------------------------------------------------|
A|---------------------------------0-0-0-0-0---0---4-4-4---4-4-4---|
D|-2-2-2-2-2-------2-2-2-2-2-4-------------------------------------|
   1 e + a 2 e + a 3 e + a 4 e + a 1 e + a 2 e + a 3 e + a 4 e + a

1:25
G|-----------------------------------------------------------------|
D|-----------------------------------------------------------------|
A|-2---2-2-2-2-2-2-2-2-4-4-5-5-4-4---------------------------------|
D|---------------------------------5---5-5-5-5-5-5-5-5-5-5-5-5-4---|
   1 e + a 2 e + a 3 e + a 4 e + a 1 e + a 2 e + a 3 e + a 4 e + a

G|-----------------------------------------------------------------|
D|-----------------------------------------------------------------|
A|---------------------------------0---0-0-0-0-0-0-0-0-0-0-0-0-4---|
D|-0---0-0-0-0-0-0-0-0-0-0-0-0-4-----------------------------------|
   1 e + a 2 e + a 3 e + a 4 e + a 1 e + a 2 e + a 3 e + a 4 e + a

1:34
G|-----------------------------------------------------------------|
D|-----------------------------------------------------------------|
A|-2---2-2-2-2-2-2-2-2-2-2-5-5-4-4---------------------------------|
D|---------------------------------5---5-5-5-5-5-5-5-5-5-5-5-5-4---|
   1 e + a 2 e + a 3 e + a 4 e + a 1 e + a 2 e + a 3 e + a 4 e + a

G|-----------------------------------------------------------------|
D|-----------------------------------------------------------------|
A|---------------------------------0---0-0-0-0-0-0-0--0--0-0--0--0-|
D|-0---0-0-0-0-0-0-0-0-0-0-0-0-0-----------------------------------|
   1 e + a 2 e + a 3 e + a 4 e + a 1 e + a 2 e + a Triplet Triplet

1:44
G|-----------------------------------------------------------------|
D|-----------------------------------------------------------------|
A|-----------------------------------------------------------------|
D|-0-------------------------------1-------------------------------|
   1 e + a 2 e + a 3 e + a 4 e + a 1 e + a 2 e + a 3 e + a 4 e + a

G|-----------------------------------------------------------------|
D|-----------------------------------------------------------------|
A|-1---------------------------------------------------------------|
D|---------------------------------3-------------------------------|
   1 e + a 2 e + a 3 e + a 4 e + a 1 e + a 2 e + a 3 e + a 4 e + a

G|-----------------------------------------------------------------|
D|-----------------------------------------------------------------|
A|-----------------------------------------------------------------|
D|-0-------------------------------1-------------------------------|
   1 e + a 2 e + a 3 e + a 4 e + a 1 e + a 2 e + a 3 e + a 4 e + a

G|-----------------------------------------------------------------|
D|-----------------------------------------------------------------|
A|-1-----------------------1---3-----------------------------------|
D|---------------------------------3-----------------------3-------|
   1 e + a 2 e + a 3 e + a 4 e + a 1 e + a 2 e + a 3 e + a 4 e + a

2:04
G|-----------------------------------------------------------------|
D|-----------------------------------------------------------------|
A|-----------------------------------------------------------------|
D|-0---0---0---0---0---0---0---0---0---0---0---0---0---0---0---0---|
   1 e + a 2 e + a 3 e + a 4 e + a 1 e + a 2 e + a 3 e + a 4 e + a

G|-------------------------------------------------------------------|
D|o-----------------------------------------------------------------o|
A|o-----------------------------------------------------------------o|
D|--0---0-------0---0---------------0---0-------0---0----------------|
    1 e + a 2 e + a 3 e + a 4 e + a 1 e + a 2 e + a 3 e + a 4 e + a

2:20
G|-------------------------------------------------------------------|
D|o-----------------------------------------------------------------o|
A|o-----------------------------------------------------------------o|
D|--0---0---x-x-0---0---x-x-x-x-x-x-0---0---x-x-0---0---x-x-x-x-x-x--|
    1 e + a 2 e + a 3 e + a 4 e + a 1 e + a 2 e + a 3 e + a 4 e + a

2:30
G|-------------------------------------------------------------------|
D|o-----------------------------------------------------------------o|
A|o-----------------------------------------------------------------o|
D|--1-p-0---1-p-0---1-p-0---1-p-0---1-p-0---1-p-0---1-p-0---1-p-0----|
    1 e + a 2 e + a 3 e + a 4 e + a 1 e + a 2 e + a 3 e + a 4 e + a

2:41
G|-----------------------------------------------------------------|
D|-----------------------------------------------------------------|
A|-----------------------------------------------------------------|
D|-5-8-7-5-8-7-5-1-----------------5-8-7-5-8-7-5-1-----------------|
   1 e + a 2 e + a 3 e + a 4 e + a 1 e + a 2 e + a 3 e + a 4 e + a

2:46
G|-----------------------------------------------------------------|
D|-----------------------------------------------------------------|
A|-----------------------------------------------------------------|
D|-0-0-0-0-0-0-0-0-0-0-0-0-0-0-0-0-0-0-0-0-0-0-0-0-0-0-0-0-0-0-0-0-|
   1 e + a 2 e + a 3 e + a 4 e + a 1 e + a 2 e + a 3 e + a 4 e + a

G|-----------------------------------------------------------------|
D|-----------------------------------------------------------------|
A|-----------------------------------------------------------------|
D|-0-0-0-0-0-0-0-0-0-0-0-0-0-0-0-0-0-0-0-0-0-0-0-0-0-0-0-0---------|
   1 e + a 2 e + a 3 e + a 4 e + a 1 e + a 2 e + a 3 e + a 4 e + a

2:57
G|-------------------------------------------------------------------|
D|o-----------------------------------------------------------------o|
A|o-----------------------------------------------------------------o|
D|--1-1-0---1-1-0---1-1-0---1-1-0---1-1-0---1-1-0---1-1-0---1-1-0----|
    1 e + a 2 e + a 3 e + a 4 e + a 1 e + a 2 e + a 3 e + a 4 e + a

rest

3:30
G|-------------------------------------------------------------------------|
D|-------------------------------------------------------------------------|
A|-13-\-\--1---1-1-1-1-1-1-1---1-1-1-----------------------3---3-3-3-3-3-3-|
D|-----------------------------------3---3-0---0-0-0-0-0-0-----------------|
   4 e + a 1 e + a 2 e + a 3 e + a 4 e + a 1 e + a 2 e + a 3 e + a 4 e + a

G|-----------------------------------------------------------------|
D|-----------------------------------------------------------------|
A|-1---1-1-1-1-1-1-1---1-1-1-3---3-----------------3---3-3-3-3-3-3-|
D|---------------------------------0---0-0-0-0-0-0-----------------|
   1 e + a 2 e + a 3 e + a 4 e + a 1 e + a 2 e + a 3 e + a 4 e + a

G|-----------------------------------------------------------------|
D|-----------------------------------------------------------------|
A|-1---1-1-1-1-1-1-1---1-1-1-----------------------3---3-3-3-3-3-3-|
D|---------------------------3---3-0---0-0-0-0-0-0-----------------|
   1 e + a 2 e + a 3 e + a 4 e + a 1 e + a 2 e + a 3 e + a 4 e + a

G|-----------------------------------------------------------------|
D|-----------------------------------------------------------------|
A|-1---1-1-1-1-1-1-1---1-1-1-3---3-----------------3---3-3-3-3-3-3-|
D|---------------------------------0---0-0-0-0-0-0-----------------|
   1 e + a 2 e + a 3 e + a 4 e + a 1 e + a 2 e + a 3 e + a 4 e + a

3:52
G|-----------------------------------------------------------------|
D|-----------------------------------------------------------------|
A|-1---1-1-1-1-1-1-1-1-1-1-1-----------------------3-3-3-3-3-3-3-3-|
D|---------------------------3---3-0---0-0-0-0-0-0-----------------|
   1 e + a 2 e + a 3 e + a 4 e + a 1 e + a 2 e + a 3 e + a 4 e + a

G|-----------------------------------------------------------------|
D|-----------------------------------------------------------------|
A|-1---1-1-1-1-1-1-1-1-1-1-1-3---------------------3-3-3-3-3-3-3-3-|
D|---------------------------------0---0-0-0-0-0-0-----------------|
   1 e + a 2 e + a 3 e + a 4 e + a 1 e + a 2 e + a 3 e + a 4 e + a

G|-----------------------------------------------------------------|
D|-----------------------------------------------------------------|
A|-1---1-1-1-1-1-1-1-1-1-1-1-----------------------3-3-3-3-3-3-3-3-|
D|---------------------------3---3-0---0-0-0-0-0-0-----------------|
   1 e + a 2 e + a 3 e + a 4 e + a 1 e + a 2 e + a 3 e + a 4 e + a

G|-----------------------------------------------------------------|
D|-----------------------------------------------------------------|
A|-1---1-1-1-1-1-1-1-1-1-1-1-3-------------------------------------|
D|---------------------------------0-------------------------------|
   1 e + a 2 e + a 3 e + a 4 e + a 1 e + a 2 e + a 3 e + a 4 e + a

Enjoy

Suggest correction
Creating personal tab
Creating personal tab
You can edit any tab online and save it as your Personal.

You can edit, replace or remove any tab part or add personal notes – all changes will be seen only by you.

Personal tabs can be accessed anytime from any device, even offline.
Learn more »
Give kudos to tab author, rate the tab!
1 2 3 4 5
comments
print report bad tab
guest
You may want to rate the tab now too:
select rating
Wanna post a correction for this tab? Suggest correction