Oops, an error
Loading. Please wait.

An Epic Of Time Wasted tab

version 3
version 3

Whole song

Interactive

215 views 1 this week
2 commentsread comments
1 2 3 4 5
2 more votes to show rating
add to favorites
×
Save as Personal and add changes to this tab that will be seen only by you. Learn more ›
×
You can save this tab as Personal to edit and correct it or add notes. All changes will be seen only by you. Learn more »
launch autoscroll
font size
0
reset
how to read this tab
guitar tuner
edit
Autoscroll
slow
fast
+/-
esc
set tempo
stop
-------------------------------------------------------------------------------
                             An Epic Of Time Wasted - Avenged Sevenfold
-------------------------------------------------------------------------------
Tabbed by: Giannis Georgiou
E-mail: MetallicSevenfold@gmail.com

Tuning: DROP D [DADGBE]
Please let me know for any mistakes and you can correct me in the comments :)
e|---------------------------------------------------------------------------|
B|---------------------------------------------------------------------------|
G|-------------------------/7~~----------------------------------------------|
D|---------------------------------------------------------------------------|
A|---0~~~~-----1--1---(2x)-/5~~------1--1-----0~~~~--1--1--------------------|
D|---0~~~~-----1--1---------0~~------1--1-----0~~~~--1--1--------------------|
              pm pm                pm   pm          pm  pm
e|---------------------------------------------------------------------------|
B|---------------------------------------------------------------------------|
G|---------------------------------------------------------------------------|
D|---------------------------------------------------------------------0~~~--|
A|--0--0-0----3/5------------------0--0-0---3/5------------------(4x)--0~~~--|
E|--0--0-0--------0-2-3-0-2-3-5-1--0--0-0--------0-2-3-0-2-3-5-7-------0~~~--|
      pm pm                          pm pm
e|---------------------------------------------------------------------------|
B|---------------------------------------------------------------------------|
G|---------------------------------------------------------------------------|
D|---------------------------------------------------------------------------|
A|---------3/5-0-2-3-0-2-3-5-1----------3/5-0-2-3-0-2-3-5-7-(4x)-------------|
E|--0-0-0------0-2-3-0-2-3-5-1---0-0-0------0-2-3-0-2-3-5-7------------------|
  pm pm pm                     pm pm pm
e|--------------------------------3p2p0--------------------------------------|
B|--------------------------------------3p2p0--------------------------------|
G|--------------------------------------------3p2p0--------------------------|
D|--------------------------------------------------3p2p0--------------------|
A|--0-0--1-1-1-1-----0----(3x)-----------------------------------------------|
E|--0-0--1-1-1-1-----0-------------------------------------------------------|
       pm pm pm pm 
e|---------------------------------------------------------------------------|
B|---------------------------------------------------------------------------|
G|---------------------------------------------------------------------------|
D|--5-5--5-5-5---5----7-7--7-7-7---7---9-9--12--9----11-9-7------------------|
A|--5-5--5-5-5---5----7-7--7-7-7---7---9-9--12--9----11-9-7------------------|
E|--5-5--5-5-5---5----7-7--7-7-7---7---9-9--12--9----11-9-7------------------|
                                                    pm pm pm
e|---------------------------------------------------------------------------|
B|----------------------------------------------7p5--------------------------|
G|---------------------------------------------------7--6h7p6----------------|
D|--5-5--5-5-5--5---7-7--7-7-7--7---4-4--4-4-4----------------7--------------|
A|--5-5--5-5-5--5---7-7--7-7-7--7---4-4--4-4-4-------------------------------|
E|--5-5--5-5-5--5---7-7--7-7-7--7---4-4--4-4-4-------------------------------|
GUITAR 1 at 1:09
e|---------------------------------------------------------------------------|
B|---------------------------------------------------------------------------|
G|---------------------------------------------------------------------------|
D|-5-5--5-5-5--5---7-7--7-7-7--7---12-12--12---11-11--11---9-9--9--7-7--7----|
A|-5-5--5-5-5--5---7-7--7-7-7--7---12-12--12---11-11--11---9-9--9--7-7--7----|
E|-5-5--5-5-5--5---7-7--7-7-7--7---12-12--12---11-11--11---9-9--9--7-7--7----|

e|---------------------------------------------------------------------------|
B|---------------------------------------------------------------------------|
G|---------------------------------------------------------------------------|
D|--5-5--5-5--7/4------------------------------------------------------------|
A|--5-5--5-5--7/4------------------------------------------------------------|
E|--5-5--5-5--7/4------------------------------------------------------------|
GUITAR 2 At 1:09
e|---------------------------------------------------------------------------|
B|---------------------------------------------------------------------------|
G|---4-4-4-4-6-7-6-6-6-6-6--6-7-7--7-6-6--6--4-4--4-6h7p6--------------------|
D|--------------------------------------------------------7-5-5--5-5-5--7-5-4|
A|---------------------------------------------------------------------------|
E|---------------------------------------------------------------------------|

e|---------------------------------------------------------------------------|
B|---------------------------------------------------------------------------|
G|---------------------------------------------------------------------------|
D|---------------------------------------------------------------------------|
A|-----------9------------9------9--7------------5-------------5-----5-4-----|
E|--9-[Trim]-9--9 [Trim]--9-99---9--7--5-[Trim]--5--5-[Trim]---5-55--5-4-----|
   pm          pm           pm         pm           pm
e|---------------------------------------------------------------------------|
B|---------------------------------------------------------------------------|
G|---------------------------------------------------------------------------|
D|---------------------------------------------------6-[Trim]---6--6[Trim]-6-|
A|----------2------------2-----2-4-------------7-7---4-[Trim]---4--4[Trim]-4-|
E|-2-[Trim]-2--2-[Trim]--2--22-2-4---7-[Trim]--7-7---------------------------|
  pm          pm           pm       pm               pm            pm


e|-------------------------------------------------------------------------------|
B|-------------------------------------------------------------------------------|
G|-------------------------------------------------------------------------------|
D|--4----------------11-11--9-9---7-7--6-6------------------11-11-9-9-11-11-14-14|
A|--2--2-2-2-2-2-2---9--9---7-7---5-5--4-4-----5------------9--9--7-7-9--9--12-12|
E|---------------------------------------------5-5-5-5-5-5-----------------------|
       p p p p p p   p  p   p p   p p  p p       p p p p p

e|-------------------------------------------------------------------------------|
B|-------------------------------------------------------------------------------|
G|-------------------------------------------------------------------------------|
D|-------------------9-9--7-7-6-6--7-7-------------------------------------------|Play the 1:26 
A|--0----------------7-7--5-5-4-4--5-5----7--------------------------------------|Twice
E|--0--0-0-0-0-0-0------------------------7-7-7-7-7-7-7-7-7-7-7-7-7-7-7----------|
       p p p p p p   p p  p p p p  p p      p p p p p p p p p p p p p p
                                         7
At the end of 1:26 riff (Ignore the last 7 77777777777777 Part and go)
e|---------------------------------------------------------------------------|
B|---------------------------------------------------------------------------|
G|---------------------------------------------------------------------------|
D|---------------------------------------------------------------------------|
A|---7----------------7-7-7-7-7-Slow Down------------------------------------|
E|---7--7-7-7-7-7-7---7-7-7-7-7----------------------------------------------|
        p p p p p p   p p p p p

GUITAR 1 At 1:45              GUITAR 2 At 1:45
e|---------------------------|------------------------------------------------|
B|---------------------------|------------------------------------------------|
G|---------------------------|----------3-3/7--5------------------------------|
D|--0~~---1~----8~--3~-------|-0~~--1~--x-x/x--x---(2x)-----------------------|
A|--0~~---1~----8~--3~---(2x)|-0~~--1~--1-1/5--3------------------------------|
E|--0~~---1~----8~--3~-------|-0~~--1~----------------------------------------|

e|---------------------------------------------------------------------------|
B|-+7+7+7+7+7+7+7+7+7+7+7+7+7+7+7+7-[GUITAR 2 Harmonics]---------------------|
G|-+7+7+7+7+7+7+7+7+7+7+7+7+7+7+7+7------------------------------------------|
D|---------------------------------------------------------------------------|
A|--0-0------------------0-0-0-0-0-0----(GUITAR 1)---------------------------|
E|--0-0--0-0-0-0-0-0-0-0-0-0-0-0-0-0-----------------------------------------|
         p p p p p p p p

e|------------------------------------------------------------------------------|
B|------------------------------------------------------------------------------|
G|----------------------/7------------------------------------------------------|
D|----------------------/7------------------------------------------------------|
A|-0-0----0-0-0---(4x)--/5----0-0------0-0--------------0-0------0-0------------| [After /7 Play
E|-0-0----0-0-0---------------0-0-0-0--0-0-0-0-0-0-0-0--0-0-0-0--0-0 00000000000|        /7 twice
                                  p p      p p p p p p      p p      ppppppppppp         /5


e|-------------------|--------------------------------------------------------|
B|-------------------|--------------------------------------------------------|
G|-------------------|-------------------------8/7----------------------------|
D|-------------------|-------------------------x/x--[[8x]---------------------|
A|--1p0----[16X]-----|-----1p0----[8x]---------6/5----------------------------|
E|--1p0---[GUITAR 1]-|-----1p0-[GUITAR 2]-------------------------------------|


e|-----------------------------------------------------------------------------|
B|-----------------------------------------------------------------------------|
G|--------------------------------------*5-------------------------------------|
D|-----------------------------------------------------------------------------|
A|-----1-0-----1-0--------1-0------1-0-----------------------------------------|
E|--5-------3------1~~--5------3---------------000000000000000000000000000000--|
                                               pppppppppppppppppppppppppppppp [Down Pick]


e|---------------------------------------------------------------------------|
B|---------------------------------------------------------------------------|
G|---------------------------------------------------------------------------|
D|---------------------------------------------------------------------------|
A|------------------0------------1-1-1-1-0--[16x]----------------------------|
E|-0000000000000----0------------1-1-1-1-0-----------------------------------|
   ppppppppppppp                 p p p p p
[Alternate Pick them Fast]

Clean Part
e|---------------------------------------------------------------------------|
B|---------------------------------------------------------------------------|
G|------3~~------2-----------------------------------------------------------|
D|----4--------4---------[4x]-------SORRY!-----------------------------------|
A|--5--------5---------------------------------------------------------------|
E|---------------------------------------------------------------------------|


e|---------------------------------------------------------------------------|
B|---------------------------------------------------------------------------|
G|--3--3-3--3--3-3--3-3-3----------------------------------------------------|
D|--3--3-3--3--3-3--3-3-3--3---0-0--------3-3h5p3----------------------------|
A|--1--1-1--1--1-1--1-1-1--3---0-0--5-3-5---------5-3------------------------|
E|-------------------------3---0-0-------------------------------------------|

e|---------------------------------------------------------------------------|
B|---------------------------------------------------------------------------|
G|--3--3-3-3--3--3-3-3-3-3/5--5-5--------------------------------------------|
D|--3--3-3-3--3--3-3-3-3-3/5--5-5----0--------3-3h5p3------------------------|[GUITAR 1 Continues
A|--1--1-1-1--1--1-1-1-1-1/3--3-3----0--5-3-5---------5-3--------------------|Till end]
E|-----------------------------------0---------------------------------------|

GUITAR 2 At 3:54 till end
e|---------------------------------------------------------------------------|
B|-----------------------------------------------------11------10/-11--------|
G|---10---------7--------3-------/-5--5--5--5/7--------x-[Trim]x-/-x---10--7-|
D|---x-[Trim]---x-[Trim]-x-[Trim]/-x--x--x--x/x-[Trim]-8-------7-/-8---x---x-|
A|---8----------5--------1-------/-3--3--3--3/5------------------------8---5-|
E|---------------------------------------------------------------------------|



***********************************

| /   slide up
| \   slide down
| h   hammer-on
| p   pull-off
| ~   vibrato
| +   harmonic
| x   Mute note
| b   Bend
| pb  Pre-bend
| br  Bend release
| pbr Pre-bend release
| brb Bend release bend
| pm - p Palm Mute

************************************

            
            
Suggest correction
Creating personal tab
Creating personal tab
You can edit any tab online and save it as your Personal.

You can edit, replace or remove any tab part or add personal notes – all changes will be seen only by you.

Personal tabs can be accessed anytime from any device, even offline.
Learn more »
Give kudos to tab author, rate the tab!
1 2 3 4 5
comments
print report bad tab
2 comments total.
+1 reply
creativelinoleum 139 Oct 27, 2016 07:46 PM

AWESOME TAB, 5 STARS

guest
You may want to rate the tab now too:
select rating
Wanna post a correction for this tab? Suggest correction