Oops, an error
Loading. Please wait.

An Epic Of Time Wasted Tab

version 4
version 4

Whole song

Interactive

64 views 1 this week
no commentswrite comment
1 2 3 4 5
1 last vote to show rating
add to favorites
launch autoscroll
font size
0
reset
how to read this tab
guitar tuner
Autoscroll
slow
fast
+/-
esc
set tempo
stop
Help us to improve Ultimate-Guitar.com Take our survey!
×
Author
Difficulty
Tuning
intermediate
D A D G B E
Band: Avenged Sevenfold
Song: An Epic of Time Wasted
Tuning: Drop D
Tabbed by: Peryitex

[Intro]

e|-----------------------------------------------------------------------------------------|
B|-----------------------------------------------------------------------------------------|
G|-----------------------------------------------------------------------------------------|
D|-0---------------------0--------------------/7---------------------0---------------------|
A|-0---------------1-1---0---------------1-1--/5---------------1-1---0---------------1-1---|
D|-0---------------1-1---0---------------1-1---0---------------1-1---0---------------1-1---|

                  PM--|                 PM--|                 PM--|                 PM--|

e|---------------------------------------------|---------------------------------------------|
B|---------------------------------------------|---------------------------------------------|
G|---------------------------------------------|---------------------------------------------|
D|-0---------------------------------5----1----|-0---------------------------------5----7----|    4x
A|-0----0--0--3/5--0--2--3--0--2--3--5----1----|-0----0--0--3/5--0--2--3--0--2--3--5----7----|
D|-0----0--0-------0--2--3--0--2--3--5----1----|-0----0--0-------0--2--3--0--2--3--5----7----|

        PM--|                                         PM--|

e|----------------|
B|----------------|
G|----------------|
D|-0--------------|
A|-0--------------|
D|-0--------------|

  PM

[Verse 1]

e|----------------------------------------------|----------------------------------------------|
B|----------------------------------------------|----------------------------------------------|
G|----------------------------------------------|----------------------------------------------|
D|------------------------------------5----1----|------------------------------------5----7----|    4x
A|-0-0-0-0-0---3/5--0--2--3--0--2--3--5----1----|-0-0-0-0-0---3/5--0--2--3--0--2--3--5----7----|
D|-0-0-0-0-0--------0--2--3--0--2--3--5----1----|-0-0-0-0-0--------0--2--3--0--2--3--5----7----|

   PM-------|                                     PM-------|

e|---------------------------------------------|-----------------------3p2p0-------------------|
B|---------------------------------------------|-----------------------------3p2p0-------------|
G|---------------------------------------------|-----------------------------------3p2p0-------|
D|-0---0-----------0-----0---0-----------0-----|-0---0-----------0-----------------------3p2p0-|
A|-0---0---0-0-0-0-0-----0---0---0-0-0-0-0-----|-0---0---0-0-0-0-0-----------------------------|
D|-0---0---0-0-0-0-0-----0---0---0-0-0-0-0-----|-0---0---0-0-0-0-0-----------------------------|

          PM------|             PM------|               PM------|

[Chorus]

e|-----------------|-----------------|-----------------|------------------|
B|-----------------|-----------------|-----------------|------------------|
G|-----------------|-----------------|-4-4---x-7---7---|-4-4---4----------|
D|-5-5---5-5-5---5-|-7-7---7-7-7---7-|-4-4---x-7---7---|-4-4---4-7--6--4--|
A|-5-5---5-5-5---5-|-7-7---7-7-7---7-|-2-2---x-5---5---|-2-2---2-5--4--2--|
D|-5-5---5-5-5---5-|-7-7---7-7-7---7-|-----------------|------------------|
 
                                                                 PM-----|

e|-----------------|-----------------|-----------------|------------------|
B|-----------------|-----------------|-----------------|------------------|
G|-----------------|-----------------|-----------------|------------------|
D|-5-5---5-5-5---5-|-7-7---7-7-7---7-|-4-4---4-4-4---4-|-4----------------|
A|-5-5---5-5-5---5-|-7-7---7-7-7---7-|-4-4---4-4-4---4-|-4----------------|
D|-5-5---5-5-5---5-|-7-7---7-7-7---7-|-4-4---4-4-4---4-|-4----------------|


e|----------------------------|
B|-7---5----------------------|
G|-----------7---6h7p6--------|
D|----------------------7-----|
A|----------------------------|
D|----------------------------|

e|----------------------------|
B|----------------------------|
G|-7---6-----7---6h7p6--------|
D|----------------------7-----|
A|----------------------------|
D|----------------------------|


e|-----------------|-----------------|-----------------|-----------------|-----------------|-----------------|
B|-----------------|-----------------|-7---------------|-----------------|-----------------|-----------------|
G|-4-4---4-4-4-6-7-|-6-6---6-6-6---6-|---5---7-6---7---|-4-4---4-7-6---4-|-----------------|-----------------|
D|-----------------|-----------------|-----------------|-----------------|-5-----------7---|-4---------------|
A|-----------------|-----------------|-----------------|-----------------|-----------------|-----------------|
D|-----------------|-----------------|-----------------|-----------------|-----------------|-----------------|

e|-----------------|-----------------|-----------------|-----------------|-----------------|-----------------|
B|-----------------|-----------------|-----------------|-----------------|-----------------|-----------------|
G|-----------------|-----------------|-7-7---7-6-6---6-|-4-4---4---------|-----------------|-----------------|
D|-5-5---5-5-5---5-|-7-7---7-7-7---7-|-7-7---7-6-6---6-|-4-4---4-7-7---7-|-5-5---5-5-5---5-|-4---------------|
A|-5-5---5-5-5---5-|-7-7---7-7-7---7-|-5-5---5-4-4---4-|-2-2---2-7-7---7-|-5-5---5-5-5---5-|-4---------------|
D|-5-5---5-5-5---5-|-7-7---7-7-7---7-|-----------------|---------7-7---7-|-5-5---5-5-5---5-|-4---------------|


[Bridge 1]

e|------------------------|-----------------------------|
B|------------------------|-----------------------------|
G|------------------------|-----------------------------|
D|-----------------9------|---------9-------9-\-7-------|
A|-----------------9------|---------9-------9-\-7-------|
D|-9-9-9-9-9-9-9-9-9------|-9-9-9-9-9---9---9-\-7-------|

   PM-------------|        |-------|   |-|

e|-------------------------|-----------------------------|
B|-------------------------|-----------------------------|
G|-------------------------|-----------------------------|
D|-----------------5-------|---------5-------5-\-4-------|
A|-----------------5-------|---------5-------5-\-4-------|
D|-5-5-5-5-5-5-5-5-5-------|-5-5-5-5-5---5---5-\-4-------|

   PM-------------|         |-------|   |-|

e|-------------------------|-----------------------------|
B|-------------------------|-----------------------------|
G|-------------------------|-----------------------------|
D|-----------------2-------|---------2-------2-/-4-------|
A|-----------------2-------|---------2-------2-/-4-------|
D|-2-2-2-2-2-2-2-2-2-------|-2-2-2-2-2---2---2-/-4-------|

   PM-------------|         |-------|   |-|

e|-----------------------------|-------------------------------------|
B|-----------------------------|-------------------------------------|
G|-----------------------------|-------------------------------------|
D|-----------------7-----7-----|-------------11---------------11-----|
A|-----------------7-----7-----|-------------11---------------11-----|
D|-7-7-7-7-7-7-7-7-7-----7-----|-11-11-11-11-11-----11---11---11-----|

   PM-------------|             |-----------|      |-------|

[Verse 2]

e|------------------------------------------------|------------------------------------------------|
B|------------------------------------------------|------------------------------------------------|
G|------------------------------------------------|------------------------------------------------|
D|-9----------------------------------------------|-5----------------------------------------7--7--|
A|-9----9--9--9--9--9--9--9--9--7--7--5--5--4--4--|-5----5--5--5--5--5--5--9--9--7--7--9--9--------|
D|-9----9--9--9--9--9--9--------------------------|-5----5--5--5--5--5--5--------------------------|

       PM---------------------------------------|       PM---------------------------------------|      

e|------------------------------------------------|------------------------------------------------|
B|------------------------------------------------|------------------------------------------------|
G|------------------------------------------------|------------------------------------------------|
D|-0----------------------------------------------|-7----------------------------------------------|
A|-0----0--0--0--0--0--0--7--7--5--5--4--4--5--5--|-7----7--7--7--7--7--7--7--7--7--7--7--7--7--7--|
D|-0----0--0--0--0--0--0--------------------------|-7----7--7--7--7--7--7--7--7--7--7--7--7--7--7--|

       PM---------------------------------------|       PM---------------------------------------|

e|------------------------------------------------|------------------------------------------------|
B|------------------------------------------------|------------------------------------------------|
G|------------------------------------------------|------------------------------------------------|
D|-9----------------------------------------------|-5----------------------------------------7--7--|
A|-9----9--9--9--9--9--9--9--9--7--7--5--5--4--4--|-5----5--5--5--5--5--5--9--9--7--7--9--9--------|
D|-9----9--9--9--9--9--9--------------------------|-5----5--5--5--5--5--5--------------------------|

       PM---------------------------------------|       PM---------------------------------------|      

e|------------------------------------------------|------------------------------------------------|
B|------------------------------------------------|------------------------------------------------|
G|------------------------------------------------|------------------------------------------------|
D|-0----------------------------------------------|-7----------------------------------------------|
A|-0----0--0--0--0--0--0--7--7--5--5--4--4--5--5--|-7----7--7--7--7--7--7--7---7---7---7---7---7---|
D|-0----0--0--0--0--0--0--------------------------|-7----7--7--7--7--7--7--7---7---7---7---7---7---|

       PM---------------------------------------|       PM---------------------------------------|
 

[Bridge 2]

e|-------------------------------------------------------------|
B|-------------------------------------------------------------|
G|-------------------------------3-----------------------------|
D|-0--------------1--------------3--------------3--------------|
A|-0--------------1--------------1--------------3--------------|
D|-0--------------1-----------------------------3--------------|

e|-------------------------------------------------------------|
B|-------------------------------------------------------------|
G|---------------------------3-/-7--------------5--------------|
D|---------------------------x-/-x--------------x--------------|
A|---------------------------1-/-5--------------3--------------|
D|-------------------------------------------------------------|


e|-------------------------------------------------------------|
B|-------------------------------------------------------------|
G|-------------------------------3-----------------------------|
D|-0--------------1--------------3--------------3--------------|
A|-0--------------1--------------1--------------3--------------|
D|-0--------------1-----------------------------3--------------|

e|-------------------------------------------------------------|
B|-------------------------------------------------------------|
G|---------------------------3-/-7--------------5----------5\--|
D|---------------------------x-/-x--------------x----------x---|
A|---------------------------1-/-5--------------3----------3\--|
D|-------------------------------------------------------------|

Slowly release reduce palm muting

e|-------------------------------|---------------------------------|
B|-------------------------------|---------------------------------|
G|-------------------------------|---------------------------------|
D|-0-----------------------------|---------0---0---0---0---0---0---|
A|-0-------0---0---0---0---0---0-|-0---0---0---0---0---0---0---0---|
D|-0-------0---0---0---0---0---0-|-0---0---0---0---0---0---0---0---| 

          PM-----------------------------|

e|-----------------------------------------------------------------|
B|-----------------------------------------------------------------|
G|---------------------------------------------------------7---7---|
D|-----------------------------------------------------------------|
A|-5---5---5---5---5---5---5---5---5---5---5---5---5---5-----------|
D|-----------------------------------------------------------------| 

  p.h----------------------------------------------------|

[Verse 3]

e|----------------------------------------|
B|----------------------------------------|
G|----------------------------------------|
D|-0-----0-------------0-----0------------|    3x
A|-0-----0-------------0-----0------------|
D|-0-----0-------------0-----0------------| 


e|----------------------------------------|
B|----------------------------------------|
G|----------------------------------------|
D|-0-----0-------------0-----0------7\----|    
A|-0-----0-------------0-----0------5\----|
D|-0-----0-------------0-----0------------| 

 
e|---------------------------------------------------------|
B|---------------------------------------------------------|
G|---------------------------------------------------------|
D|-0-----0-------------0-----0-----------------------------|
A|-0-----0-----0---0---0-----0-----0---0---0---0---0---0---|
D|-0-----0-----0---0---0-----0-----0---0---0---0---0---0---| 

               PM---|             |----------------------|             2x 

e|---------------------------|-------------------------------|
B|---------------------------|-------------------------------|
G|---------------------------|-------------------------------|
D|-0-----0-------------0-----|-0-----------------------------|
A|-0-----0-----0---0---0-----|-0-----0-0-0-0-0-0-0-0-0-0-0-0-|
D|-0-----0-----0---0---0-----|-0-----0-0-0-0-0-0-0-0-0-0-0-0-| 

               PM---|                |----------------------|

[Bridge 3]

e|-------------------------------------------------------------------------------------------------|
B|-------------------------------------------------------------------------------------------------|
G|-------------------------------------------------------------------------------------------------|
D|-1-p-0-------1--p--0-----1--p--0-----1--p--0-----1--p--0-----1--p--0-----1--p--0-----1--p--0-----|
A|-1-p-0-------1--p--0-----1--p--0-----1--p--0-----1--p--0-----1--p--0-----1--p--0-----1--p--0-----|
D|-1-p-0-------1--p--0-----1--p--0-----1--p--0-----1--p--0-----1--p--0-----1--p--0-----1--p--0-----| 
 

e|-------------------------------------------------------------------------------------------------|
B|-------------------------------------------------------------------------------------------------|
G|-------------------------------------------------------------------------------------------------|
D|-1--p--0-----1--p--0-----1--p--0-----1--p--0-----1--p--0-----1--p--0-----1--p--0-----1--p--0-----|
A|-1--p--0-----1--p--0-----1--p--0-----1--p--0-----1--p--0-----1--p--0-----1--p--0-----1--p--0-----|
D|-1--p--0-----1--p--0-----1--p--0-----1--p--0-----1--p--0-----1--p--0-----1--p--0-----1--p--0-----| 

e|-------------------------------------------------------------------------------------------------|
B|-------------------------------------------------------------------------------------------------|
G|-------------------------------------------------------------------------------------------------|
D|-------------------------------------------------------------------------------------------------|
A|-6--p--5-----6--p--5-----6--p--5-----6--p--5-----6--p--5-----6--p--5-----6--p--5-----6--p--5-----|
D|-------------------------------------------------------------------------------------------------| 


e|---------------------------------------------------|
B|---------------------------------------------------|
G|---------------------------------------------------|
D|---------------------------------------------------|
A|-----------1-0-1------------------------6----------|
D|-5-8-7-3-------1----------5-8-7-3---8-7------------| 

                                          p.h

[Build Up]

e|-------------------------|
B|-------------------------|
G|-------------------------|
D|-------------------------|   7x
A|-0--0--0--0--0--0--0--0--|
D|-0--0--0--0--0--0--0--0--| 

  PM----------------------|

e|-------------------------|
B|-------------------------|
G|-------------------------|
D|-------------0-----------|
A|-0--0--0--0--0-----------|
D|-0--0--0--0--0-----------| 

  PM----------|


e|---------------------|
B|---------------------|
G|---------------------|
D|---------------------|    8x
A|-0-0-0-----0-0-0-----|
D|-0-0-0-----0-0-0-----| 

   PM-------------|

[Clean Section]

 |Daug|          |D|
   
e|-------------------------------|
B|-------------------------------|
G|-------3--------------2--------|
D|----4--------------4-----------|   3x
A|-5--------------5--------------|
D|-------------------------------| 

e|-------------------------------|
B|-------------------------------|
G|-------3--------------2----2---|
D|----4--------------4-------4---|   
A|-5--------------5----------5---|
D|-------------------------------| 

[Outro]

e|------------------------|----------------------|------------------------|-------------------------|
B|------------------------|----------------------|------------------------|-------------------------|
G|------------------------|----------------------|------------------------|-------------------------|
D|-8-----8--8--8----8--8--|-8-----8-----8--3-----|-0-----0--0--0----0--0--|----------3--3h5p3-------|
A|-8-----8--8--8----8--8--|-8-----8-----8--3-----|-0-----0--0--0----0--0--|-5--3--5-----------5--3--|
D|-8-----8--8--8----8--8--|-8-----8-----8--3-----|-0-----0--0--0----0--0--|-------------------------| 
                                                                                                       3x 
e|------------------------|----------------------|------------------------|-------------------------|
B|------------------------|----------------------|------------------------|-------------------------|
G|------------------------|----------------------|------------------------|-------------------------|
D|-8-----8--8--8----8--8--|-8-----8-----8--10----|-0-----0--0--0----0--0--|----------3--3h5p3-------|
A|-8-----8--8--8----8--8--|-8-----8-----8--10----|-0-----0--0--0----0--0--|-5--3--5-----------5--3--|
D|-8-----8--8--8----8--8--|-8-----8-----8--10----|-0-----0--0--0----0--0--|-------------------------| 


e|------------------------|----------------------|------------------------|-------------------------|
B|------------------------|----------------------|------------------------|-------------------------|
G|------------------------|----------------------|------------------------|-------------------------|
D|-8-----8--8--8----8--8--|-8-----8-----8--3-----|-0-----0--0--0----0--0--|----------3--3h5p3-------|
A|-8-----8--8--8----8--8--|-8-----8-----8--3-----|-0-----0--0--0----0--0--|-5--3--5-----------5--3--|
D|-8-----8--8--8----8--8--|-8-----8-----8--3-----|-0-----0--0--0----0--0--|-------------------------| 
                                                                                                        
e|------------------------|----------------------|------------------------|
B|------------------------|----------------------|------------------------|
G|------------------------|----------------------|------------------------|
D|-8-----8--8--8----8--8--|-8-----8-----8--10----|-0----------------------|
A|-8-----8--8--8----8--8--|-8-----8-----8--10----|-0----------------------|
D|-8-----8--8--8----8--8--|-8-----8-----8--10----|-0----------------------|

After the 2nd repeat of the riff above a lead guitar comes in:

e|-------------------------|------------------------|-------------------------|-------------------------|
B|-------------------------|------------------------|-------------------------|-------------------------|
G|-3-----3--3--3-----3--3--|-3--3--3--3--3-/10------|-10\7--7--7--7--7--7--7--|-7--7--7--7--7--7--7--7--|
D|-x-----x--x--x-----x--x--|-x--x--x--x--x---x------|--x-x--x--x--x--x--x--x--|-x--x--x--x--x--x--x--x--|
A|-1-----1--1--1-----1--1--|-1--1--1--1--1-/-8------|--8\5--5--5--5--5--5--5--|-5--5--5--5--5--5--5--5--|
D|-------------------------|------------------------|-------------------------|-------------------------|

e|-------------------------|------------------------|-------------------------|-------------------------|
B|-------------------------|------------------------|-------------------------|-------------------------|
G|-3-----3--3--3-----3--3--|-3--3--3--3--3-/-5------|-5/-7--7--7--7--7--7--7--|-7--7--7--7--7--7--7--7--|
D|-x-----x--x--x-----x--x--|-x--x--x--x--x---x------|-x--x--x--x--x--x--x--x--|-x--x--x--x--x--x--x--x--|
A|-1-----1--1--1-----1--1--|-1--1--1--1--1-/-3------|-3/-5--5--5--5--5--5--5--|-5--5--5--5--5--5--5--5--|
D|-------------------------|------------------------|-------------------------|-------------------------|

e|-------------------------|-------------------------|-------------------------|-------------------------|
B|-------------------------|-------------------------|-------------------------|-------------------------|
G|-15----15-15-15----15-15-|-15-15-15-15-15-15-15-15-|-15\14-14-14-14-14-14-14-|-14-14-14-14-14-14-14-14-|
D|--x-----x--x--x-----x--x-|--x--x--x--x--x--x--x--x-|--x--x--x--x--x--x--x--x-|--x--x--x--x--x--x--x--x-|
A|-13----13-13-13----13-13-|-13-13-13-13-13-13-13-13-|-13\12-12-12-12-12-12-12-|-12-12-12-12-12-12-12-12-|
D|-------------------------|-------------------------|-------------------------|-------------------------| 

e|-------------------------|-------------------------|-------------------------|
B|-------------------------|-------------------------|-------------------------|
G|-14/15-15-15-15-15-15-15-|-15-15-15-15-15-10-------|-7-----------------------|
D|--x--x--x--x--x--x--x--x-|--x--x--x--x--x--x-------|-x-----------------------|
A|-12/13-13-13-13-13-13-13-|-13-13-13-13-13--8-------|-5-----------------------|
D|-------------------------|-------------------------|-------------------------|

************************************

| x   Dead note
| h   Hammer-on
| p   Pull-off
| /   Slide up
| \   Slide down
| PM  Palm mute
| p.h Pinch Harmonic

************************************
Suggest correction
Give kudos to tab author, rate the tab!
1 2 3 4 5
comments
print report bad tab
guest
You may want to rate the tab now too:
select rating
Wanna post a correction for this tab? Suggest correction