Oops, an error
Loading. Please wait.

And All Things Will End Bass Tab

version 3
version 3

Whole song

Interactive

307 views 1 this week
no commentswrite comment
1 2 3 4 5
please rate
add to favorites
launch autoscroll
font size
0
reset
guitar tuner
Autoscroll
slow
fast
+/-
esc
set tempo
stop
Help us to improve Ultimate-Guitar.com Take our survey!
×
Author
Tuning
Teh D Bot 10,214
D A D G B E
0:11
G|---------------------------------------------------------------------|--------|
D|o----------1211----------1211---------1211--8~7--7~-------511h12p11-o|--------|
A|o----------------------------------------------10--1087578----------o|--------|
D|--0~0(x10)------0~0(x10)-----0~0(x10)--------------------------------|-0~~~-0-|

0:36
G|------------------------------------------------------|
D|o----------------------------------------------------o|
A|o----------------------------------------------------o|
D|--0~0(x15)---3~3(x15)---5~5(x7)--666656--0~0(x15)-35--|

0:58
G|-------------------------------------------|
D|-------------------------------------------|
A|-------------------------------------------|
D|-8~8(x7)--33333h5-0~0(x15)---8~8(x7)-3--35-|

1:07
G|---------------------------------------------------------------------------|
D|----------1211----------1211---------1211--8~7--7~-------511h12p11---------|
A|----------------------------------------------10--1087578------------------|
D|-0~0(x10)------0~0(x10)-----0~0(x10)--------------------------------0~~~-0-|

1:21
G|------------------------------------------------------|
D|o----------------------------------------------------o|
A|o----------------------------------------------------o|
D|--0~0(x15)---3~3(x15)---5~5(x7)--666656--0~0(x15)-35--|

1:44                        3x
G|----------------------------|---------------------|
D|o--------------------------o|---------------------|
A|o--------------------------o|---------------------|
D|--8~8(x7)--33333h5-0~0(x15)-|--8~8(x7)-3--35-0~~~-|

*Break*

2:31
G|----------------------32------------------------------------------|
D|o----------------2~-22--20~--0-----------------------------------o|
A|o-5~-55~-3~-33-13--------------3-1~--1310-------0~-00~-0/12~-12\-o|
D|------------------------------------------5~-3-5------------------|

G|----------------------32-------------------------------------------|
D|-----------------2~-22--20~--0-------------------------------------|
A|-5~-555~-3~-333~---------------3-1~--11310-------------------------|
D|------------------------------------------5~-3-5-7~-7\2-7\3/15\3/7-|

3:42                                     4x
G|------------------------------------------|
D|o----------------------------------------o|
A|o----/5-0~-----/7-0~-----/8-0~0578758/12-o|
D|--00-------0-0-------0-0------------------|

4:06
G|---------------------|
D|-8~7--7~-------5-----|
A|----10--1087578-4543-|
D|---------------------|

4:09
G|---------------------------------------|------------|
D|o-------------------------------------o|------------|
A|o-5(x16)--8(x16)--3(x16)--1(x8)-0(x8)-o|------------|
D|---------------------------------------|-0(x7)--0-0-|

4:24                        3x
G|----------------------------|-------------------------|
D|o--------------------------o|-------------------------|
A|o--------------------------o|-------------------------|
D|--8~8(x7)--33333h5-0~0(x15)-|--8~8(x7)-3--35-0~0(x15)-|

                            3x
G|----------------------------|---------------------|
D|o--------------------------o|---------------------|
A|o--------------------------o|---------------------|
D|--8~8(x7)--33333h5-0~0(x15)-|--8~8(x7)-3--35-0~~~-|

5:11                                                        7x
G|------------------------------------------------------------|
D|o----------------------------------------------------------o|
A|o----------------------------------------------------------o|
D|--5~--358~----3~----1~-1~--1-1-1-1-1-1-1-1-0-0-0-0-0-0-0-0--|

6:30
G|----------------------------------------------------------|
D|----------------------------------------------------------|
A|------------------------------------------4-4-4-4-4-4-4-4-|
D|-4~--247~----2~----0~-0~--0-0-0-0-0-0-0-0-----------------|
B|-----------------------------------------(2-2-2-2-2-2-2-2)|

6:43
G|----------------------------------------------------------|
D|----------------------------------------------------------|
A|-------------------4~-4~--4-4-4-4-4-4-4-4-3-3-3-3-3-3-3-3-|
D|-3~--136~----1~-------------------------------------------|
B|------------------(2~-2~--2-2-2-2-2-2-2-2-1-1-1-1-1-1-1-1)|

6:57
G|----------------------------------------------------------|
D|----------------------------------------------------------|
A|----------------------------------------------------------|
D|-2~--025~----0~----0~-0~--0-0-0-0-0-0-0-0-0-0-0-0-0-0-0-0-|
B|------------------(1~-1~--1-1-1-1-1-1-1-1-0-0-0-0-0-0-0-0)|
Tabbed by Dave Vucko
Suggest correction new What's this?
You can suggest a correction to this tab. Community and Mods will review your correction and vote to approve or reject it.
comments
We did not receive enough feedback on this tab! Please rate:
print report bad tab
1 2 3 4 5
guest
You may want to rate the tab now too:
select rating
Please do not post tabs as comments. Select "correction" instead!