Oops, an error
Loading. Please wait.

Angels Bass Tab

version 1
version 1

Whole song

Interactive

319 views 24 this week
no commentswrite comment
1 2 3 4 5
x 4
add to favorites
launch autoscroll
font size
0
reset
guitar tuner
Autoscroll
slow
fast
+/-
esc
set tempo
stop
Help us to improve Ultimate-Guitar.com Take our survey!
×
Author
Difficulty
Tuning
novice
D A D G B E
Verse 0:22
G|-----------------------------------------------------------|
D|o---------------------------------------------------------o|
A|o-----------------6-----------5---0-r-0---3---0---5-------o|x3
D|--5-r-5---8---5--------------------------------------------|
    1 + 2 + 3 + 4 + 1 + 2 + 3 + 4 + 1 + 2 + 3 + 4 + 1 + 2 +

G|-----------------------------------------------------------------|
D|-----------------------------------------------------------------|
A|-----------------6-----------5---0-r-0---3---0---5---------------|
D|-5-r-5---8---5---------------------------------------------------|
   1 + 2 + 3 + 4 + 1 + 2 + 3 + 4 + 1 + 2 + 3 + 4 + 1 + 2 + 3 + 4 +

Pre Chorus 0:45
G|-----------------------------------------------------------------|
D|-----------------------------------------------------------------|
A|-----------------6---6---6---5---0---0---3---0---5---5---3---3---|
D|-5---5---8---5---------------------------------------------------|
   1 + 2 + 3 + 4 + 1 + 2 + 3 + 4 + 1 + 2 + 3 + 4 + 1 + 2 + 3 + 4 +

G|-----------------------------------------------------------------|
D|-----------------------------------------------------------------|
A|-----------------3---3---3---1---0---0---0---0-------------------|
D|-8---5---5---8-----------------------------------0---0---0---0---|
   1 + 2 + 3 + 4 + 1 + 2 + 3 + 4 + 1 + 2 + 3 + 4 + 1 + 2 + 3 + 4 +

Chorus 0:57
G|-----------------------------------------------------------------|
D|-----------------7-------5---------------------------------------|
A|-6-------------------------------------------------------5-------|
D|---------------------------------5-------------/-9---------------|
   1 + 2 + 3 + 4 + 1 + 2 + 3 + 4 + 1 + 2 + 3 + 4 + 1 + 2 + 3 + 4 +

G|-----------------------------------------------------------------|
D|-----------------7-------5---------------------------------------|
A|-6-----------------------------------------------5-----/---------|
D|---------------------------------5-----------------------9-------|
   1 + 2 + 3 + 4 + 1 + 2 + 3 + 4 + 1 + 2 + 3 + 4 + 1 + 2 + 3 + 4 +

G|-----------------------------------------------------------------|
D|-----------------7-------5---------------------------------------|
A|-6-------------------------------------------------------5-------|
D|---------------------------------5-------------/-9---------------|
   1 + 2 + 3 + 4 + 1 + 2 + 3 + 4 + 1 + 2 + 3 + 4 + 1 + 2 + 3 + 4 +

G|---------------------------------|
D|-----------------7-------5-------|
A|-6-------------------------------|
D|---------------------------------|
   1 + 2 + 3 + 4 + 1 + 2 + 3 + 4 +

Verse 1:19
G|-----------------------------------------------------------|
D|o---------------------------------------------------------o|
A|o-----------------6-----------5---0-r-0---3---0---5-------o|x3
D|--5-r-5---8---5--------------------------------------------|
    1 + 2 + 3 + 4 + 1 + 2 + 3 + 4 + 1 + 2 + 3 + 4 + 1 + 2 +

G|-----------------------------------------------------------------|
D|-----------------------------------------------------------------|
A|-----------------6-----------5---0-r-0---3---0---5-------5---5-5-|
D|-5-r-5---8---5---------------------------------------------------|
   1 + 2 + 3 + 4 + 1 + 2 + 3 + 4 + 1 + 2 + 3 + 4 + 1 + 2 + 3 + 4 +

Pre Chorus 1:41
G|-----------------------------------------------------------------|
D|-----------------------------------------------------------------|
A|-----------------6---6---6---5---0---0---3---0---5---5---3---3---|
D|-5---5---8---5---------------------------------------------------|
   1 + 2 + 3 + 4 + 1 + 2 + 3 + 4 + 1 + 2 + 3 + 4 + 1 + 2 + 3 + 4 +

G|-----------------------------------------------------------------|
D|-----------------------------------------------------------------|
A|-----------------3---3---3---1---0---0---0---0---5---5---5---5---|
D|-8---5---5---8---------------------------------------------------|
   1 + 2 + 3 + 4 + 1 + 2 + 3 + 4 + 1 + 2 + 3 + 4 + 1 + 2 + 3 + 4 +

Chorus 1:53
G|-----------------------------------------------------------------|
D|-----------------7-------5---------------------------------------|
A|-6-------------------------------------------------------5-------|
D|---------------------------------5-------------/-9---------------|
   1 + 2 + 3 + 4 + 1 + 2 + 3 + 4 + 1 + 2 + 3 + 4 + 1 + 2 + 3 + 4 +

G|-----------------------------------------------------------------|
D|-----------------7-------5---------------------------------------|
A|-6-----------------------------------------------5-----/---------|
D|---------------------------------5-----------------------9-------|
   1 + 2 + 3 + 4 + 1 + 2 + 3 + 4 + 1 + 2 + 3 + 4 + 1 + 2 + 3 + 4 +

G|-----------------------------------------------------------------|
D|-----------------7-------5---------------------------------------|
A|-6-------------------------------------------------------5-------|
D|---------------------------------5-------------/-9---------------|
   1 + 2 + 3 + 4 + 1 + 2 + 3 + 4 + 1 + 2 + 3 + 4 + 1 + 2 + 3 + 4 +

G|-----------------------------------------------------------------|
D|-----------------7-------5---------------------------------------|
A|-6---------------------------------------------------------------|
D|---------------------------------5-----5-----5-------5---5---5-5-|
   1 + 2 + 3 + 4 + 1 + 2 + 3 + 4 + 1 + 2 + 3 + 4 + 1 + 2 + 3 + 4 +

Solo 2:18
G|-----------------------------------------------------------------|
D|-----------------------------------------------------------------|
A|-6---6---6---6---6h8-6-6-6-6-6-----------------------------------|
D|---------------------------------5---5---5---5---7-------8-------|
   1 + 2 + 3 + 4 + 1 + 2 + 3 + 4 + 1 + 2 + 3 + 4 + 1 + 2 + 3 + 4 +

G|-----------------------------------------------------------------|
D|-----------------------------------------------------------------|
A|-6---6---6---6---6h8-6-6-6-6-6h8---------------------------------|
D|---------------------------------5-------5---5-5-7h8-7---5---8---|
   1 + 2 + 3 + 4 + 1 + 2 + 3 + 4 + 1 + 2 + 3 + 4 + 1 + 2 + 3 + 4 +

G|-----------------------------------------------------------------|
D|-----------------------------------------------------------------|
A|-6---6---6-----6-6h8-6-----6-6-----------------------------------|
D|---------------------------------5---5---5---5---7---8---7---5---|
   1 + 2 + 3 + 4 + 1 + 2 + 3 + 4 + 1 + 2 + 3 + 4 + 1 + 2 + 3 + 4 +

G|-----------------------------------------------------------------|
D|-----------------7-7-7-7-5-5-5-5---------------------------------|
A|-6---6---6---6---------------------------------------------------|
D|---------------------------------5-----5-----5-------5---5-5-5-5-|
   1 + 2 + 3 + 4 + 1 + 2 + 3 + 4 + 1 + 2 + 3 + 4 + 1 + 2 + 3 + 4 +

2:43
G|-----------------------------------------------------------------|
D|-------------------5-5-5-3-3-5-5---------------------------------|
A|-3-3-3-5-5-5-6-6-6---------------------------------------6-------|
D|---------------------------------6---6-6-6-6-6-6-6-8-6-8---8-6-8-|
   1 + 2 + 3 + 4 + 1 + 2 + 3 + 4 + 1 + 2 + 3 + 4 + 1 + 2 + 3 + 4 +

G|-------------------------------------------------------------------------------|
D|-------------------5---5-3---5-------------6-6-6-----6-8-8-8-6-6-6-------------|
A|-3---3-5---5-6---6---------------------6-8-------6-8---------------8-8-8-6-6-6-|
D|---------------------------------6---6-----------------------------------------|
   1 + 2 + 3 + 4 + 1 + 2 + 3 + 4 + 1 + tripl tripl tripl tripl tripl tripl tripl

G|---------------------------------------------------------5-------|
D|-------------------5---5-3---5-----------------------6-8---8-6-6-|
A|-3---3-5---5-6---6-----------------------6-------6---------------|
D|---------------------------------6---6-6---6-6-6---6-------------|
   1 + 2 + 3 + 4 + 1 + 2 + 3 + 4 + 1 + 2 + 3 + 4 + 1 + 2 + 3 + 4 +

G|-----------------------------------------------------------------|
D|-------------------5-5-5-3-3-5-5---------------------------------|
A|-3-3-3-5-5-5-6-6-6-----------------------------------------------|
D|---------------------------------6-------------------------------|
   1 + 2 + 3 + 4 + 1 + 2 + 3 + 4 + 1 + 2 + 3 + 4 + 1 + 2 + 3 + 4 +

Verse 3:08
G|-----------------------------------------------------------|
D|o---------------------------------------------------------o|
A|o-----------------6-----------5---0-r-0---3---0---5-------o|x3
D|--5-r-5---8---5--------------------------------------------|
    1 + 2 + 3 + 4 + 1 + 2 + 3 + 4 + 1 + 2 + 3 + 4 + 1 + 2 +

G|-----------------------------------------------------------------|
D|-----------------------------------------------------------------|
A|-----------------6-----------5---0-r-0---3---0---5-------5---5-5-|
D|-5-r-5---8---5---------------------------------------------------|
   1 + 2 + 3 + 4 + 1 + 2 + 3 + 4 + 1 + 2 + 3 + 4 + 1 + 2 + 3 + 4 +

Pre Chorus 3:30
G|-----------------------------------------------------------------|
D|-----------------------------------------------------------------|
A|-----------------6---6---6---5---0---0---3---0---5---5---3---3---|
D|-5---5---8---5---------------------------------------------------|
   1 + 2 + 3 + 4 + 1 + 2 + 3 + 4 + 1 + 2 + 3 + 4 + 1 + 2 + 3 + 4 +

G|-----------------------------------------------------------------|
D|-----------------------------------------------------------------|
A|-----------------3---3---3---1---0---0---0---0---5---5---5---5---|
D|-8---5---5---8---------------------------------------------------|
   1 + 2 + 3 + 4 + 1 + 2 + 3 + 4 + 1 + 2 + 3 + 4 + 1 + 2 + 3 + 4 +

Chorus 3:43
G|-----------------------------------------------------------------|
D|-----------------7-------5---------------------------------------|
A|-6-----------------------------------------------2-2-2-2-5-5-5-5-|
D|---------------------------------5---5---5-----------------------|
   1 + 2 + 3 + 4 + 1 + 2 + 3 + 4 + 1 + 2 + 3 + 4 + 1 + 2 + 3 + 4 +

G|-----------------------------------------------------------------|
D|-----------------7-7-7-7-5-5-5-5---------------------------------|
A|-6---6---6-------------------------------------------------------|
D|---------------------------------5---5---5-------9-9-9-9-9-9-9-9-|
   1 + 2 + 3 + 4 + 1 + 2 + 3 + 4 + 1 + 2 + 3 + 4 + 1 + 2 + 3 + 4 +

G|-----------------------------------------------------------------|
D|-----------------7-------5-------------------------------5-7-----|
A|-6---------------------------------------------------5-8-----5---|
D|---------------------------------5---5---5-------5-8-------------|
   1 + 2 + 3 + 4 + 1 + 2 + 3 + 4 + 1 + 2 + 3 + 4 + 1 + 2 + 3 + 4 +

G|-----------------------------------------------------------------|
D|-----------------7-------5---------------------------------------|
A|-6---------------------------------------------------------------|
D|---------------------------------5-----------5-------------------|
   1 + 2 + 3 + 4 + 1 + 2 + 3 + 4 + 1 + 2 + 3 + 4 + 1 + 2 + 3 + 4 +

Outro Solo 4:07
G|-----------------------------------------------------------------|
D|-----------------------------------------------------------------|
A|-----------------6---6---6---5---0---0---3---0---5---5-5-3---3-3-|
D|-5---5---8---5---------------------------------------------------|
   1 + 2 + 3 + 4 + 1 + 2 + 3 + 4 + 1 + 2 + 3 + 4 + 1 + 2 + 3 + 4 +

G|--------------------------------------------------------------------|
D|--------------------------------------------------------------------|
A|--------------------3---3-3-3---1---0---1---3---0---5---3---1---0---|
D|-8h10p8-5---5---8---------------------------------------------------|
   1    + 2 + 3 + 4 + 1 + 2 + 3 + 4 + 1 + 2 + 3 + 4 + 1 + 2 + 3 + 4 +

4:20
G|-----------------------------------------------------------------|
D|-----------------------------------------------------------------|
A|-----------------6---6---6---5---0---0---3---0---5---5-5-3---3-3-|
D|-5---5---8---5---------------------------------------------------|
   1 + 2 + 3 + 4 + 1 + 2 + 3 + 4 + 1 + 2 + 3 + 4 + 1 + 2 + 3 + 4 +

G|--------------------------------------------------------------------|
D|--------------------------------------------------------------------|
A|--------------------3---3---3---1---0---1---3---0---5---3---1---0---|
D|-8h10p8-5---5---8---------------------------------------------------|
   1    + 2 + 3 + 4 + 1 + 2 + 3 + 4 + 1 + 2 + 3 + 4 + 1 + 2 + 3 + 4 +

4:32
G|-----------------------------------------------------------------|
D|-----------------------------------------------------------------|
A|-----------------6---6---6---5---0---0---3---0---5---5-5-3---3-3-|
D|-5---5---8---5---------------------------------------------------|
   1 + 2 + 3 + 4 + 1 + 2 + 3 + 4 + 1 + 2 + 3 + 4 + 1 + 2 + 3 + 4 +

G|-----------------------------------------------------------------|
D|-----------------------------------------------------------------|
A|-----------------3---3---3---1---0---1---3---0---5---3---1---3---|
D|-8---5---5---8---------------------------------------------------|
   1 + 2 + 3 + 4 + 1 + 2 + 3 + 4 + 1 + 2 + 3 + 4 + 1 + 2 + 3 + 4 +

4:45
G|-----------------------------------------------------------------|
D|-----------------------------------------------------------------|
A|-----------------6---6h8-3---1---0---0---3---0---5-5-3-3-1-1-0-0-|
D|-5---5---8---5---------------------------------------------------|
   1 + 2 + 3 + 4 + 1 + 2 + 3 + 4 + 1 + 2 + 3 + 4 + 1 + 2 + 3 + 4 +

G|-----------------------------------------------------------------|
D|-----------------------------------------------------------------|
A|---------------------------------0---0---3---0---5-5-3-3-1-1-3-5-|
D|-5---5---8---5-------8---7---5-----------------------------------|
   1 + 2 + 3 + 4 + 1 + 2 + 3 + 4 + 1 + 2 + 3 + 4 + 1 + 2 + 3 + 4 +

4:57
G|-----------------------------------------------------------------|
D|-----------------------------------------------------------------|
A|-----------------6---5h6-3---1---0---0---3---0---5---3---1---0---|
D|-5---5---8---5---------------------------------------------------|
   1 + 2 + 3 + 4 + 1 + 2 + 3 + 4 + 1 + 2 + 3 + 4 + 1 + 2 + 3 + 4 +

G|-----------------------------------------------------------------|
D|-----------------------------------------------------------------|
A|-----------------3---1---0-------0---1---3---0---5---3---1---3---|
D|-5---5---8---5---------------5-----------------------------------|
   1 + 2 + 3 + 4 + 1 + 2 + 3 + 4 + 1 + 2 + 3 + 4 + 1 + 2 + 3 + 4 +

5:10
G|-----------------------------------------------------------------|
D|-----------------------------------------------------------------|
A|-----------------6---5h6-3---1---0---0---3---0---5--53--31--10---|
D|-5---5---8---5---------------------------------------------------|
   1 + 2 + 3 + 4 + 1 + 2 + 3 + 4 + 1 + 2 + 3 + 4 + 1 + 2 + 3 + 4 +

G|-----------------------------------------------------------------|
D|-----------------------------------------------------------------|
A|-----------------3-3-1-1-0-------0---1-1-3-3-0-0-5-5-3-3-1-1-3-3-|
D|-5---5---8---5---------------5-----------------------------------|
   1 + 2 + 3 + 4 + 1 + 2 + 3 + 4 + 1 + 2 + 3 + 4 + 1 + 2 + 3 + 4 +

5:22
G|-----------------------------------------------------------------|
D|-----------------------------------------------------------------|
A|-----------------6-6-6-6-6-6-6-6-0---0---3---0---5-5-5-5-3-3-3-5-|
D|-5---5---8-8-5-5-------------------------------------------------|
   1 + 2 + 3 + 4 + 1 + 2 + 3 + 4 + 1 + 2 + 3 + 4 + 1 + 2 + 3 + 4 +

G|--------------------------------------------------------------------|
D|--------------------------------------------------------------------|
A|--------------------3---3-3-3-3-1---0---1-1-3---0---5---3---1---0---|
D|-8h10p8-5---5---8---------------------------------------------------|
   1    + 2 + 3 + 4 + 1 + 2 + 3 + 4 + 1 + 2 + 3 + 4 + 1 + 2 + 3 + 4 +

G|-----------------------------------------------------------------|
D|-----------------------------------------------------------------|
A|-----------------------------------------------------------------|
D|-5---------------------------------------------------------------|
   1 + 2 + 3 + 4 + 1 + 2 + 3 + 4 + 1 + 2 + 3 + 4 + 1 + 2 + 3 + 4 +

Tabbed by Dave Vucko
Suggest correction
comments
print report bad tab
guest
You may want to rate the tab now too:
select rating
Wanna post a correction for this tab? Suggest correction