Oops, an error
Loading. Please wait.

Angels Tab

version 1
version 1

Whole song

Interactive

4,924 views 483 this week
no commentswrite comment
1 2 3 4 5
x 5
add to favorites
launch autoscroll
font size
0
reset
how to read this tab
guitar tuner
Autoscroll
slow
fast
+/-
esc
set tempo
stop
Help us to improve Ultimate-Guitar.com Take our survey!
×
Author
Difficulty
Tuning
advanced
D A D G B E
Link to video cover: https://www.youtube.com/watch?v=XxKW2d8sKK8

TUNING IN DROP D:

[Intro]

e|---------------------------------------------------------------------------|
B|---------------------------------------------------------------------------|
G|---------------------------------------------------------------------------|
D|-5-5-----5---5--2-2--5--2--7-----------------------------------------------|
A|-5-5-5-5-6---5--0-0--3--0--5-----------------------------------------------|
D|-5-5-8-5-------------------------------------------------------------------|

e|---------------------------------------------------------------------------|
B|---------------------------------------------------------------------------|
G|---------------------------------------------------------------------------|
D|-5-5-----5---5--2-2--5--2--7-----------------------------------------------|
A|-5-5-5-5-6---5--0-0--3--0--5-----------------------------------------------|
D|-5-5-8-5-------------------------------------------------------------------|

e|---------------------------------------------------------------------------|
B|---------------------------------------------------------------------------|
G|---------------------------------------------------------------------------|
D|-5-5-----5---5--2-2--5--2--7-----------------------------------------------|
A|-5-5-5-5-6---5--0-0--3--0--5-----------------------------------------------|
D|-5-5-8-5-------------------------------------------------------------------|

e|---------------------------------------------------------------------------|
B|---------------------------------------------------------------------------|
G|---------------------------------------------------------------------------|
D|-5-5-----5---5--2-2--5--2--7-----------------------------------------------|
A|-5-5-5-5-6---5--0-0--3--0--5-----------------------------------------------|
D|-5-5-8-5-------------------------------------------------------------------|



[Verse]

e|---------------------------------------------------------------------------|
B|---------------------------------------------------------------------------|
G|---------------------------------------------------------------------------|
D|-5-5-----5---5--2-2--5--2--7-----------------------------------------------|
A|-5-5-5-5-6---5--0-0--3--0--5-----------------------------------------------|
D|-5-5-8-5-------------------------------------------------------------------|

e|---------------------------------------------------------------------------|
B|---------------------------------------------------------------------------|
G|---------------------------------------------------------------------------|
D|-5-5-----5---5--2-2--5--2--7-----------------------------------------------|
A|-5-5-5-5-6---5--0-0--3--0--5-----------------------------------------------|
D|-5-5-8-5-------------------------------------------------------------------|

e|---------------------------------------------------------------------------|
B|---------------------------------------------------------------------------|
G|---------------------------------------------------------------------------|
D|-5-5-----5---5--2-2--5--2--7-----------------------------------------------|
A|-5-5-5-5-6---5--0-0--3--0--5-----------------------------------------------|
D|-5-5-8-5-------------------------------------------------------------------|

e|---------------------------------------------------------------------------|
B|---------------------------------------------------------------------------|
G|---------------------------------------------------------------------------|
D|-5-5-----5---5--2-2--5--2--7-----------------------------------------------|
A|-5-5-5-5-6---5--0-0--3--0--5-----------------------------------------------|
D|-5-5-8-5-------------------------------------------------------------------|


[Pre-Chorus]

e|---------------------------------------------------------------------------|
B|-------4---3--------------3----------4---3------------3--------------------|
G|----3--3---3--5--5\-------5-------3--3---3--5--5\-----5--------------------|
D|---5-5---------5----------4------5-5---------5--------4--------------------|
A|---------------------------------------------------------------------------|
D|---------------------------------------------------------------------------|

[Verse 2]

e|---------------------------------------------------------------------------|
B|---------------------------------------------------------------------------|
G|---------------------------------------------------------------------------|
D|-5-5-----5---5--2-2--5--2--7-----------------------------------------------|
A|-5-5-5-5-6---5--0-0--3--0--5-----------------------------------------------|
D|-5-5-8-5-------------------------------------------------------------------|

e|---------------------------------------------------------------------------|
B|---------------------------------------------------------------------------|
G|---------------------------------------------------------------------------|
D|-5-5-----5---5--2-2--5--2--7-----------------------------------------------|
A|-5-5-5-5-6---5--0-0--3--0--5-----------------------------------------------|
D|-5-5-8-5-------------------------------------------------------------------|

e|---------------------------------------------------------------------------|
B|---------------------------------------------------------------------------|
G|---------------------------------------------------------------------------|
D|-5-5-----5---5--2-2--5--2--7-----------------------------------------------|
A|-5-5-5-5-6---5--0-0--3--0--5-----------------------------------------------|
D|-5-5-8-5-------------------------------------------------------------------|

e|---------------------------------------------------------------------------|
B|---------------------------------------------------------------------------|
G|---------------------------------------------------------------------------|
D|-5-5-----5---5--2-2--5--2--7-----------------------------------------------|
A|-5-5-5-5-6---5--0-0--3--0--5-----------------------------------------------|
D|-5-5-8-5-------------------------------------------------------------------|

[Pre-Chorus 2]

e|---------------------------------------------------------------------------|
B|-------4---3--------------3----------4---3------------3--------------------|
G|----3--3---3--5--5\-------5-------3--3---3--5--5\-----5--------------------|
D|---5-5---------5----------4------5-5---------5--------4--------------------|
A|---------------------------------------------------------------------------|
D|---------------------------------------------------------------------------|

[Solo 1 (SYNYSTER GATES)]

e|---------------------------------------------------------------------------|
B|----------------------11-10-11--10-----------------------------------------|
G|-----------------10b----------------12-12\-7--10-10br-8-7-7-8-7-5-5h7-5-5h7|
D|10b-10-8----8br~-------------------------------------------------8-----8---|
A|---------10----------------------------------------------------------------|
D|---------------------------------------------------------------------------|

e|-----------------------------------------------------------15b-15-17br-15--|
B|--------------------------------------------------14b-14br-----------------|
G|5-5h7-5-5h7--5b-8b-5br--5-7-10-8~---------13b-13br-------------------------|
D|-8-----8---8----------8--------------8-10----------------------------------|
A|-----------------------------------10--------------------------------------|
D|---------------------------------------------------------------------------|

e|13-15-15br--11-13-10----10-------------------------------------------------|
B|---------------------11---13\10-10/13-11------------15-18-16~--13br13-10-10|
G|----------------------------------------12-12-----15-----------------------|
D|------------------------------------------------17-------------------------|
A|---------------------------------------------------------------------------|
D|---------------------------------------------------------------------------|

e|---------------------------------------------------------------------------|
B|9p8-9p8-9p8-9-11\---------------------------------------------------8------|
G|-----------------8-----------------------------------8b-8--10b-10-8-10(12)n|
D|------------------6-5-------------------------------5----------------------|
A|---------------------8-6-6-8br-8br-10b--6-8br-6--6-8-----------------------|
D|---------------------------------------------------------------------------|

e|---------------------------------------------------------------------------------------15-18p15---------|
B|-------------------16-15br--16b-15--15--15-16b-15---18p16--16-18p16--16-18p16--16----16--------16-------|
G|10-14b-17-15----15---------------17---17---------17------17--------17--------17----15------------15-----|
D|-------------17------------------------------------------------------------------17----------------17---|
A|-----------------------------------------------------------------------------------------------------18b|
D|--------------------------------------------------------------------------------------------------------|


[Verse again]
[Pre-chorus again]


[Final Solo (PAPA GATES)]


e|---------------------------------------------------------------------------10b-10--8--|
B|-----------------------8-11-13-13br---16b--13br-11--13--11-----10br-10-8------------11|
G|--------------------/10---------------------------12--12--12~-----------11------------|
D|10b-8-10-10br-8--8br------------------------------------------------------------------|
A|---------------10---------------------------------------------------------------------|
D|--------------------------------------------------------------------------------------|

e|--------------------------------------------17-18p17--17-18-20-20br-20-18--15b-15b----|
B|13b-13br-11-13b-13b-11-13-13b-11--13-11-10~~--------15-------------------20-----------|
G|--------------------------------12----------------------------------------------------|
D|--------------------------------------------------------------------------------------|
A|--------------------------------------------------------------------------------------|
D|--------------------------------------------------------------------------------------|

e|13-15-15b-15b--13-15------20b-20-22b-22-20-18-------------------------------------------------------------|
B|--------------------15-16--------------------20-----------------15----15-----13p11------16(18)r-13--------|
G|-----------------------------------------------19-22-17---------17(19)17(19)------12-12-----------15-12-15|
D|-------------------------------------------------------20-17-20-------------------------------------------|
A|----------------------------------------------------------------------------------------------------------|
D|----------------------------------------------------------------------------------------------------------|

e|--------------------------------------------------------13-15--------------------------------------------|
B|13-----------------------------8-------12b-12b-11-13-13b-----13b-11--13--11----------11--------------18--|
G|--12-15-14-12------------------10(12)------------------------------12--12--14-12-12\-13(15)----15-17b--17|
D|-------------15-13-12-----------------------------------------------------------------------/17----------|
A|---------------------15-13-12----------------------------------------------------------------------------|
D|---------------------------------------------------------------------------------------------------------|

e|-----------------13-14-15-18-13-17-15---------------------------------/13-11-/20-18------------------------|
B|---------------15--------------------15-----11----16bb-----------10-11-------------/20-18-18--16-----------|
G|15-14--14-15-17------------------------15---14(15)----15p14-10-12---------------------------17---17-12-15--|
D|-----17----------------------------------17----------------------------------------------------------------|
A|-----------------------------------------------------------------------------------------------------------|
D|-----------------------------------------------------------------------------------------------------------|

e|--------------------------------------------------------------------------------------------------|
B|--------------------------------------------------------------------------------------------------|
G|----------10br------------------------------------/10-13--17-15-14br------------------------------|
D|-----10-12----10---------------10-10-8------------------------------13b-12-10-8-------------------|
A|10-13-----------13-10--10b-10b--------10----/10-13-----------------------------12-10-8------------|
D|---------------------15---------------------------------------------------------------12-10-8-7-5-|


************************************

| \    Slide down
| h    Hammer-on
| b    Bend
| br   Bend release
| ~    Vibrato
| /    Slide up
| p    Pull-off
| (n)  Ghost note

************************************
Suggest correction
comments
print report bad tab
guest
You may want to rate the tab now too:
select rating
Wanna post a correction for this tab? Suggest correction