Oops, an error
Loading. Please wait.

Bat Country Tab

version 1
110,674 views 33 this week
10 commentsread comments
1 2 3 4 5
worth learning
x 11
add to favorites
launch autoscroll
font size
0
reset
how to read this tab
guitar tuner
Autoscroll
slow
fast
+/-
esc
set tempo
stop
Help us to improve Ultimate-Guitar.com Take our survey!
×
Author
Tabbers playing skills
intermediate ++
This tabs not the best, I did it so long ago:/

Drop D tuning  DADGBE

huge bend on the~
---------------------------------|
---15~---9~---9----8~--8---------|
---17~---11~--11---10~-10--------|
---------------------------------|
---------------------------------|
---------------------------------|


It gets faster here
--------------------------------|
---------------------10-13-15---|
-----------10-12-13-------------|
---12--12-----------------------|
--------------------------------|
--------------------------------|


--------------------------------|
-15---15v-15--------------------|
--------------------------------|
--------------------------------|
--------------------------------|
------------------0-0-(divebomb)|




-------------------------------------------------|
-------------------------------------------------|
--5b--5b--5b--5b-7-5b-5b-5b-5b-13----5b-5b-5b-5b-|
-------------------------------------------------|
-------------------------------------------------|
-------------------------------------------------|

-------------------------------------------|
----------13-13-13b-13b-13-13-10-----------|
-17v-17---------------------------13-13-19-|
-------------------------------------------|
-------------------------------------------|
-------------------------------------------|

------------------------------------|
------------------------------------|
-19v-19-13-10-13-22bv-22-22---------|
------------------------------------|
------------------------------------|
------------------------------------|

--17-17-16-15-------15---------------|
----------------18-------18b--18b----|
-------------------------------------|
-------------------------------------|
-------------------------------------|
-------------------------------------|

-18-17-13----------------------------|
-------------------------------------|
-----------13-13-13-13-17-17-17-17---|
-------------------------------------|
-------------------------------------|
-------------------------------------|

-------------------------------------|
-15-15b-15--------15-18---18v--------|
-----------13------------------------|
-------------------------------------|
-------------------------------------|
-------------------------------------|

And finally the 1st guitar plays this
-10-----------13------------12---------|
------------------10-10-10-------------|
-----10-10-10--------------------------|
---------------------------------------|
---------------------------------------|
---------------------------------------|

-------15-----------17-18-17-16-17-18-17-16-12-|
-9-9-9-----14-14-14----------------------------|
-----------------------------------------------|
-----------------------------------------------|
-----------------------------------------------|
-----------------------------------------------|

This is the finish 1st guitar
-10-11-12-13-12-11-10-11-12-13-12-11-12-13-14--|
-----------------------------------------------|
-----------------------------------------------|
-----------------------------------------------|
-----------------------------------------------|
-----------------------------------------------|

-15-14-13-12-13-14-15-14-13-13-15-16-17-16-15-|
----------------------------------------------|
----------------------------------------------|
----------------------------------------------|
----------------------------------------------|
----------------------------------------------|

-13-15-16-17-16-15-17-18-21-18-17---------------17-18-20-|
-----------------------------------18-17-18-20-----------|
---------------------------------------------------------|
---------------------------------------------------------|
---------------------------------------------------------|
---------------------------------------------------------|

Suggest correction
comments
print report bad tab
10 comments total. Showing first comments.
0 reply
FedEx_Man 1,467 wrote on January 14 2006, 01:33 pm

what are you talkin about the solos not even 1 minute it goes from 2:18 to 3:16 not including the part after M. Shadows starts singing again

0 reply
FedEx_Man 1,467 wrote on January 14 2006, 01:33 pm

actually 3:15

0 reply
stratkat 949 wrote on January 19 2006, 02:46 pm

I meant it starts at about two minutes the solo starts at 2:18 my mistake.

guest
You may want to rate the tab now too:
select rating
Wanna post a correction for this tab? Suggest correction